  0
SECTION
  2
HEADER
  9
$ACADVER
  1
AC1015
  9
$ACADMAINTVER
 70
     6
  9
$DWGCODEPAGE
  3
ANSI_932
  9
$INSBASE
 10
0.0
 20
0.0
 30
0.0
  9
$EXTMIN
 10
1.000000000000000E+20
 20
1.000000000000000E+20
 30
1.000000000000000E+20
  9
$EXTMAX
 10
-1.000000000000000E+20
 20
-1.000000000000000E+20
 30
-1.000000000000000E+20
  9
$LIMMIN
 10
0.0
 20
0.0
  9
$LIMMAX
 10
12.0
 20
9.0
  9
$ORTHOMODE
 70
     0
  9
$REGENMODE
 70
     1
  9
$FILLMODE
 70
     1
  9
$QTEXTMODE
 70
     0
  9
$MIRRTEXT
 70
     1
  9
$LTSCALE
 40
1.0
  9
$ATTMODE
 70
     1
  9
$TEXTSIZE
 40
0.2
  9
$TRACEWID
 40
0.05
  9
$TEXTSTYLE
  7
Standard
  9
$CLAYER
  8
0
  9
$CELTYPE
  6
ByLayer
  9
$CECOLOR
 62
   256
  9
$CELTSCALE
 40
1.0
  9
$DISPSILH
 70
     0
  9
$DIMSCALE
 40
1.0
  9
$DIMASZ
 40
0.18
  9
$DIMEXO
 40
0.0625
  9
$DIMDLI
 40
0.38
  9
$DIMRND
 40
0.0
  9
$DIMDLE
 40
0.0
  9
$DIMEXE
 40
0.18
  9
$DIMTP
 40
0.0
  9
$DIMTM
 40
0.0
  9
$DIMTXT
 40
0.18
  9
$DIMCEN
 40
0.09
  9
$DIMTSZ
 40
0.0
  9
$DIMTOL
 70
     0
  9
$DIMLIM
 70
     0
  9
$DIMTIH
 70
     1
  9
$DIMTOH
 70
     1
  9
$DIMSE1
 70
     0
  9
$DIMSE2
 70
     0
  9
$DIMTAD
 70
     0
  9
$DIMZIN
 70
     0
  9
$DIMBLK
  1

  9
$DIMASO
 70
     1
  9
$DIMSHO
 70
     1
  9
$DIMPOST
  1

  9
$DIMAPOST
  1

  9
$DIMALT
 70
     0
  9
$DIMALTD
 70
     2
  9
$DIMALTF
 40
25.4
  9
$DIMLFAC
 40
1.0
  9
$DIMTOFL
 70
     0
  9
$DIMTVP
 40
0.0
  9
$DIMTIX
 70
     0
  9
$DIMSOXD
 70
     0
  9
$DIMSAH
 70
     0
  9
$DIMBLK1
  1

  9
$DIMBLK2
  1

  9
$DIMSTYLE
  2
Standard
  9
$DIMCLRD
 70
     0
  9
$DIMCLRE
 70
     0
  9
$DIMCLRT
 70
     0
  9
$DIMTFAC
 40
1.0
  9
$DIMGAP
 40
0.09
  9
$DIMJUST
 70
     0
  9
$DIMSD1
 70
     0
  9
$DIMSD2
 70
     0
  9
$DIMTOLJ
 70
     1
  9
$DIMTZIN
 70
     0
  9
$DIMALTZ
 70
     0
  9
$DIMALTTZ
 70
     0
  9
$DIMUPT
 70
     0
  9
$DIMDEC
 70
     4
  9
$DIMTDEC
 70
     4
  9
$DIMALTU
 70
     2
  9
$DIMALTTD
 70
     2
  9
$DIMTXSTY
  7
Standard
  9
$DIMAUNIT
 70
     0
  9
$DIMADEC
 70
     0
  9
$DIMALTRND
 40
0.0
  9
$DIMAZIN
 70
     0
  9
$DIMDSEP
 70
    46
  9
$DIMATFIT
 70
     3
  9
$DIMFRAC
 70
     0
  9
$DIMLDRBLK
  1

  9
$DIMLUNIT
 70
     2
  9
$DIMLWD
 70
    -2
  9
$DIMLWE
 70
    -2
  9
$DIMTMOVE
 70
     0
  9
$LUNITS
 70
     2
  9
$LUPREC
 70
     4
  9
$SKETCHINC
 40
0.1
  9
$FILLETRAD
 40
0.5
  9
$AUNITS
 70
     0
  9
$AUPREC
 70
     0
  9
$MENU
  1
.
  9
$ELEVATION
 40
0.0
  9
$PELEVATION
 40
0.0
  9
$THICKNESS
 40
0.0
  9
$LIMCHECK
 70
     0
  9
$CHAMFERA
 40
0.5
  9
$CHAMFERB
 40
0.5
  9
$CHAMFERC
 40
1.0
  9
$CHAMFERD
 40
0.0
  9
$SKPOLY
 70
     0
  9
$TDCREATE
 40
2457810.744641204
  9
$TDUCREATE
 40
2457810.952974537
  9
$TDUPDATE
 40
2457810.744641215
  9
$TDUUPDATE
 40
2457810.952974549
  9
$TDINDWG
 40
0.0000000116
  9
$TDUSRTIMER
 40
0.0000000116
  9
$USRTIMER
 70
     1
  9
$ANGBASE
 50
0.0
  9
$ANGDIR
 70
     0
  9
$PDMODE
 70
     0
  9
$PDSIZE
 40
0.0
  9
$PLINEWID
 40
0.0
  9
$SPLFRAME
 70
     0
  9
$SPLINETYPE
 70
     6
  9
$SPLINESEGS
 70
     8
  9
$HANDSEED
  5
D0
  9
$SURFTAB1
 70
     6
  9
$SURFTAB2
 70
     6
  9
$SURFTYPE
 70
     6
  9
$SURFU
 70
     6
  9
$SURFV
 70
     6
  9
$UCSBASE
  2

  9
$UCSNAME
  2

  9
$UCSORG
 10
0.0
 20
0.0
 30
0.0
  9
$UCSXDIR
 10
1.0
 20
0.0
 30
0.0
  9
$UCSYDIR
 10
0.0
 20
1.0
 30
0.0
  9
$UCSORTHOREF
  2

  9
$UCSORTHOVIEW
 70
     0
  9
$UCSORGTOP
 10
0.0
 20
0.0
 30
0.0
  9
$UCSORGBOTTOM
 10
0.0
 20
0.0
 30
0.0
  9
$UCSORGLEFT
 10
0.0
 20
0.0
 30
0.0
  9
$UCSORGRIGHT
 10
0.0
 20
0.0
 30
0.0
  9
$UCSORGFRONT
 10
0.0
 20
0.0
 30
0.0
  9
$UCSORGBACK
 10
0.0
 20
0.0
 30
0.0
  9
$PUCSBASE
  2

  9
$PUCSNAME
  2

  9
$PUCSORG
 10
0.0
 20
0.0
 30
0.0
  9
$PUCSXDIR
 10
1.0
 20
0.0
 30
0.0
  9
$PUCSYDIR
 10
0.0
 20
1.0
 30
0.0
  9
$PUCSORTHOREF
  2

  9
$PUCSORTHOVIEW
 70
     0
  9
$PUCSORGTOP
 10
0.0
 20
0.0
 30
0.0
  9
$PUCSORGBOTTOM
 10
0.0
 20
0.0
 30
0.0
  9
$PUCSORGLEFT
 10
0.0
 20
0.0
 30
0.0
  9
$PUCSORGRIGHT
 10
0.0
 20
0.0
 30
0.0
  9
$PUCSORGFRONT
 10
0.0
 20
0.0
 30
0.0
  9
$PUCSORGBACK
 10
0.0
 20
0.0
 30
0.0
  9
$USERI1
 70
     0
  9
$USERI2
 70
     0
  9
$USERI3
 70
     0
  9
$USERI4
 70
     0
  9
$USERI5
 70
     0
  9
$USERR1
 40
0.0
  9
$USERR2
 40
0.0
  9
$USERR3
 40
0.0
  9
$USERR4
 40
0.0
  9
$USERR5
 40
0.0
  9
$WORLDVIEW
 70
     1
  9
$SHADEDGE
 70
     3
  9
$SHADEDIF
 70
    70
  9
$TILEMODE
 70
     1
  9
$MAXACTVP
 70
    64
  9
$PINSBASE
 10
0.0
 20
0.0
 30
0.0
  9
$PLIMCHECK
 70
     0
  9
$PEXTMIN
 10
1.000000000000000E+20
 20
1.000000000000000E+20
 30
1.000000000000000E+20
  9
$PEXTMAX
 10
-1.000000000000000E+20
 20
-1.000000000000000E+20
 30
-1.000000000000000E+20
  9
$PLIMMIN
 10
0.0
 20
0.0
  9
$PLIMMAX
 10
12.0
 20
9.0
  9
$UNITMODE
 70
     0
  9
$VISRETAIN
 70
     1
  9
$PLINEGEN
 70
     0
  9
$PSLTSCALE
 70
     1
  9
$TREEDEPTH
 70
  3020
  9
$CMLSTYLE
  2
Standard
  9
$CMLJUST
 70
     0
  9
$CMLSCALE
 40
1.0
  9
$PROXYGRAPHICS
 70
     1
  9
$MEASUREMENT
 70
     0
  9
$CELWEIGHT
370
    -1
  9
$ENDCAPS
280
     0
  9
$JOINSTYLE
280
     0
  9
$LWDISPLAY
290
     1
  9
$INSUNITS
 70
     1
  9
$HYPERLINKBASE
  1

  9
$STYLESHEET
  1

  9
$XEDIT
290
     1
  9
$CEPSNTYPE
380
     0
  9
$PSTYLEMODE
290
     1
  9
$FINGERPRINTGUID
  2
{1F8BE238-B0B6-8D8E-4C17-8622F8E466D7}
  9
$VERSIONGUID
  2
{FAEB1C32-E019-11D5-929B-00C0DF256EC4}
  9
$EXTNAMES
290
     1
  9
$PSVPSCALE
 40
0.0
  9
$OLESTARTUP
290
     0
  0
ENDSEC
  0
SECTION
  2
CLASSES
  0
CLASS
  1
ACDBDICTIONARYWDFLT
  2
AcDbDictionaryWithDefault
  3
ObjectDBX Classes
 90
        0
280
     0
281
     0
  0
CLASS
  1
VISUALSTYLE
  2
AcDbVisualStyle
  3
ObjectDBX Classes
 90
     4095
280
     0
281
     0
  0
CLASS
  1
ACDBPLACEHOLDER
  2
AcDbPlaceHolder
  3
ObjectDBX Classes
 90
        0
280
     0
281
     0
  0
CLASS
  1
LAYOUT
  2
AcDbLayout
  3
ObjectDBX Classes
 90
        0
280
     0
281
     0
  0
ENDSEC
  0
SECTION
  2
TABLES
  0
TABLE
  2
VPORT
  5
8
330
0
100
AcDbSymbolTable
 70
     1
  0
VPORT
  5
29
330
8
100
AcDbSymbolTableRecord
100
AcDbViewportTableRecord
  2
*Active
 70
     0
 10
0.0
 20
0.0
 11
1.0
 21
1.0
 12
0.0
 22
0.0
 13
0.0
 23
0.0
 14
0.5
 24
0.5
 15
0.5
 25
0.5
 16
0.0
 26
0.0
 36
1.0
 17
2.159722222222222
 27
-1.541666666666667
 37
0.0
 40
3.083333333333333
 41
1.400900900900901
 42
50.0
 43
0.0
 44
0.0
 50
0.0
 51
0.0
 71
     0
 72
   100
 73
     1
 74
     3
 75
     0
 76
     0
 77
     0
 78
     0
281
     0
 65
     1
110
0.0
120
0.0
130
0.0
111
1.0
121
0.0
131
0.0
112
0.0
122
1.0
132
0.0
 79
     0
146
0.0
  0
ENDTAB
  0
TABLE
  2
LTYPE
  5
5
330
0
100
AcDbSymbolTable
 70
     1
  0
LTYPE
  5
14
330
5
100
AcDbSymbolTableRecord
100
AcDbLinetypeTableRecord
  2
ByBlock
 70
     0
  3

 72
    65
 73
     0
 40
0.0
  0
LTYPE
  5
15
330
5
100
AcDbSymbolTableRecord
100
AcDbLinetypeTableRecord
  2
ByLayer
 70
     0
  3

 72
    65
 73
     0
 40
0.0
  0
LTYPE
  5
16
330
5
100
AcDbSymbolTableRecord
100
AcDbLinetypeTableRecord
  2
Continuous
 70
     0
  3
Solid line
 72
    65
 73
     0
 40
0.0
  0
ENDTAB
  0
TABLE
  2
LAYER
  5
2
330
0
100
AcDbSymbolTable
 70
     2
  0
LAYER
  5
10
330
2
100
AcDbSymbolTableRecord
100
AcDbLayerTableRecord
  2
0
 70
     0
 62
     7
  6
Continuous
370
    -3
390
F
  0
LAYER
  5
3B
330
2
100
AcDbSymbolTableRecord
100
AcDbLayerTableRecord
  2
Layer 1
 70
     0
 62
     7
  6
Continuous
370
    -3
390
F
  0
ENDTAB
  0
TABLE
  2
STYLE
  5
3
330
0
100
AcDbSymbolTable
 70
     1
  0
STYLE
  5
11
330
3
100
AcDbSymbolTableRecord
100
AcDbTextStyleTableRecord
  2
Standard
 70
     0
 40
0.0
 41
1.0
 50
0.0
 71
     0
 42
0.2
  3
txt
  4

  0
ENDTAB
  0
TABLE
  2
VIEW
  5
6
330
0
100
AcDbSymbolTable
 70
     0
  0
ENDTAB
  0
TABLE
  2
UCS
  5
7
330
0
100
AcDbSymbolTable
 70
     0
  0
ENDTAB
  0
TABLE
  2
APPID
  5
9
330
0
100
AcDbSymbolTable
 70
     1
  0
APPID
  5
12
330
9
100
AcDbSymbolTableRecord
100
AcDbRegAppTableRecord
  2
ACAD
 70
     0
  0
ENDTAB
  0
TABLE
  2
DIMSTYLE
  5
A
330
0
100
AcDbSymbolTable
 70
     1
100
AcDbDimStyleTable
  0
DIMSTYLE
105
27
330
A
100
AcDbSymbolTableRecord
100
AcDbDimStyleTableRecord
  2
Standard
 70
     0
340
11
  0
ENDTAB
  0
TABLE
  2
BLOCK_RECORD
  5
1
330
0
100
AcDbSymbolTable
 70
     3
  0
BLOCK_RECORD
  5
1F
330
1
100
AcDbSymbolTableRecord
100
AcDbBlockTableRecord
  2
*Model_Space
340
22
  0
BLOCK_RECORD
  5
1B
330
1
100
AcDbSymbolTableRecord
100
AcDbBlockTableRecord
  2
*Paper_Space
340
1E
  0
BLOCK_RECORD
  5
23
330
1
100
AcDbSymbolTableRecord
100
AcDbBlockTableRecord
  2
*Paper_Space0
340
26
  0
BLOCK_RECORD
  5
45
330
1
100
AcDbSymbolTableRecord
100
AcDbBlockTableRecord
  2
block 2
340
0
102
{BLKREFS
331
46
102
}
  0
BLOCK_RECORD
  5
7B
330
1
100
AcDbSymbolTableRecord
100
AcDbBlockTableRecord
  2
block 3
340
0
102
{BLKREFS
331
7C
102
}
  0
ENDTAB
  0
ENDSEC
  0
SECTION
  2
BLOCKS
  0
BLOCK
  5
20
330
1F
100
AcDbEntity
  8
0
100
AcDbBlockBegin
  2
*Model_Space
 70
     0
 71
     0
 10
0.0
 20
0.0
 30
0.0
  3
*Model_Space
  1

  0
ENDBLK
  5
21
330
1F
100
AcDbEntity
  8
0
100
AcDbBlockEnd
  0
BLOCK
  5
1C
330
1B
100
AcDbEntity
 67
     1
  8
0
100
AcDbBlockBegin
  2
*Paper_Space
 70
     0
 71
     0
 10
0.0
 20
0.0
 30
0.0
  3
*Paper_Space
  1

  0
ENDBLK
  5
1D
330
1B
100
AcDbEntity
 67
     1
  8
0
100
AcDbBlockEnd
  0
BLOCK
  5
24
330
23
100
AcDbEntity
  8
0
100
AcDbBlockBegin
  2
*Paper_Space0
 70
     0
 71
     0
 10
0.0
 20
0.0
 30
0.0
  3
*Paper_Space0
  1

  0
ENDBLK
  5
25
330
23
100
AcDbEntity
  8
0
100
AcDbBlockEnd
  0
BLOCK
  5
47
330
45
100
AcDbEntity
  8
0
100
AcDbBlockBegin
  2
block 2
 70
     0
 71
     0
 10
0.0
 20
0.0
 30
0.0
  3
block 2
  1

  0
POLYLINE
  5
49
330
45
100
AcDbEntity
  8
Layer 1
 62
     1
370
    18
100
AcDb2dPolyline
 66
     1
 10
0.0
 20
0.0
 30
0.0
  0
VERTEX
  5
4A
330
49
100
AcDbEntity
  8
Layer 1
 62
     1
370
    18
100
AcDbVertex
100
AcDb2dVertex
 10
1.804036458333333
 20
-0.5073581271701388
 30
0.0
  0
VERTEX
  5
4B
330
49
100
AcDbEntity
  8
Layer 1
 62
     1
370
    18
100
AcDbVertex
100
AcDb2dVertex
 10
1.834703233506944
 20
-0.5073581271701388
 30
0.0
  0
VERTEX
  5
4C
330
49
100
AcDbEntity
  8
Layer 1
 62
     1
370
    18
100
AcDbVertex
100
AcDb2dVertex
 10
1.834703233506944
 20
-0.6012708875868055
 30
0.0
  0
VERTEX
  5
4D
330
49
100
AcDbEntity
  8
Layer 1
 62
     1
370
    18
100
AcDbVertex
100
AcDb2dVertex
 10
1.951944986979167
 20
-0.6012708875868055
 30
0.0
  0
VERTEX
  5
4E
330
49
100
AcDbEntity
  8
Layer 1
 62
     1
370
    18
100
AcDbVertex
100
AcDb2dVertex
 10
1.951944986979167
 20
-0.5073581271701388
 30
0.0
  0
VERTEX
  5
4F
330
49
100
AcDbEntity
  8
Layer 1
 62
     1
370
    18
100
AcDbVertex
100
AcDb2dVertex
 10
1.982611762152778
 20
-0.5073581271701388
 30
0.0
  0
VERTEX
  5
50
330
49
100
AcDbEntity
  8
Layer 1
 62
     1
370
    18
100
AcDbVertex
100
AcDb2dVertex
 10
1.982611762152778
 20
-0.7335272894965278
 30
0.0
  0
VERTEX
  5
51
330
49
100
AcDbEntity
  8
Layer 1
 62
     1
370
    18
100
AcDbVertex
100
AcDb2dVertex
 10
1.951944986979167
 20
-0.7335272894965278
 30
0.0
  0
VERTEX
  5
52
330
49
100
AcDbEntity
  8
Layer 1
 62
     1
370
    18
100
AcDbVertex
100
AcDb2dVertex
 10
1.951944986979167
 20
-0.6300252278645833
 30
0.0
  0
VERTEX
  5
53
330
49
100
AcDbEntity
  8
Layer 1
 62
     1
370
    18
100
AcDbVertex
100
AcDb2dVertex
 10
1.834703233506944
 20
-0.6300252278645833
 30
0.0
  0
VERTEX
  5
54
330
49
100
AcDbEntity
  8
Layer 1
 62
     1
370
    18
100
AcDbVertex
100
AcDb2dVertex
 10
1.834703233506944
 20
-0.7335272894965278
 30
0.0
  0
VERTEX
  5
55
330
49
100
AcDbEntity
  8
Layer 1
 62
     1
370
    18
100
AcDbVertex
100
AcDb2dVertex
 10
1.804036458333333
 20
-0.7335272894965278
 30
0.0
  0
VERTEX
  5
56
330
49
100
AcDbEntity
  8
Layer 1
 62
     1
370
    18
100
AcDbVertex
100
AcDb2dVertex
 10
1.804036458333333
 20
-0.5073581271701388
 30
0.0
  0
SEQEND
  5
57
330
49
100
AcDbEntity
  8
Layer 1
370
    18
  0
SPLINE
  5
58
330
45
100
AcDbEntity
  8
Layer 1
 62
     1
370
    18
100
AcDbSpline
210
0.0
220
0.0
230
1.0
 70
    11
 71
     3
 72
    71
 73
    67
 74
     0
 42
0.0000000001
 43
0.0000000001
 40
0.0
 40
0.0
 40
0.0
 40
0.0
 40
1.0
 40
1.0
 40
1.0
 40
2.0
 40
2.0
 40
2.0
 40
3.0
 40
3.0
 40
3.0
 40
4.0
 40
4.0
 40
4.0
 40
5.0
 40
5.0
 40
5.0
 40
6.0
 40
6.0
 40
6.0
 40
7.0
 40
7.0
 40
7.0
 40
8.0
 40
8.0
 40
8.0
 40
9.0
 40
9.0
 40
9.0
 40
10.0
 40
10.0
 40
10.0
 40
11.0
 40
11.0
 40
11.0
 40
12.0
 40
12.0
 40
12.0
 40
13.0
 40
13.0
 40
13.0
 40
14.0
 40
14.0
 40
14.0
 40
15.0
 40
15.0
 40
15.0
 40
16.0
 40
16.0
 40
16.0
 40
17.0
 40
17.0
 40
17.0
 40
18.0
 40
18.0
 40
18.0
 40
19.0
 40
19.0
 40
19.0
 40
20.0
 40
20.0
 40
20.0
 40
21.0
 40
21.0
 40
21.0
 40
22.0
 40
22.0
 40
22.0
 40
22.0
 10
2.055121527777778
 20
-0.6683553059895833
 30
0.0
 10
2.055121527777778
 20
-0.6749606662326388
 30
0.0
 10
2.056559244791667
 20
-0.6809828016493055
 30
0.0
 10
2.059434678819444
 20
-0.6864081488715278
 30
0.0
 10
2.062310112847222
 20
-0.69183349609375
 30
0.0
 10
2.066087510850694
 20
-0.69647216796875
 30
0.0
 10
2.070773654513889
 20
-0.7003106011284722
 30
0.0
 10
2.075459798177083
 20
-0.7041354709201388
 30
0.0
 10
2.080885145399305
 20
-0.707119411892361
 30
0.0
 10
2.087070041232639
 20
-0.7092488606770833
 30
0.0
 10
2.093241373697917
 20
-0.7113783094618055
 30
0.0
 10
2.099629720052083
 20
-0.7124498155381944
 30
0.0
 10
2.106235080295139
 20
-0.7124498155381944
 30
0.0
 10
2.115180121527778
 20
-0.7124498155381944
 30
0.0
 10
2.122951931423611
 20
-0.7103610568576388
 30
0.0
 10
2.129550509982639
 20
-0.7062106662326388
 30
0.0
 10
2.136149088541667
 20
-0.7020602756076388
 30
0.0
 10
2.142218695746528
 20
-0.6965806749131944
 30
0.0
 10
2.147759331597222
 20
-0.68975830078125
 30
0.0
 10
2.147759331597222
 20
-0.68975830078125
 30
0.0
 10
2.169481065538194
 20
-0.7063734266493055
 30
0.0
 10
2.169481065538194
 20
-0.7063734266493055
 30
0.0
 10
2.153510199652778
 20
-0.7270304361979166
 30
0.0
 10
2.131150987413194
 20
-0.73736572265625
 30
0.0
 10
2.102403428819444
 20
-0.73736572265625
 30
0.0
 10
2.090467664930555
 20
-0.73736572265625
 30
0.0
 10
2.079664442274305
 20
-0.7353312174479166
 30
0.0
 10
2.069973415798611
 20
-0.731289333767361
 30
0.0
 10
2.060282389322917
 20
-0.7272474500868055
 30
0.0
 10
2.052090115017361
 20
-0.7216593424479166
 30
0.0
 10
2.045376247829861
 20
-0.7145250108506944
 30
0.0
 10
2.038669162326389
 20
-0.7073906792534722
 30
0.0
 10
2.03350830078125
 20
-0.6989813910590278
 30
0.0
 10
2.029886881510417
 20
-0.6892835828993055
 30
0.0
 10
2.026265462239583
 20
-0.6795993381076388
 30
0.0
 10
2.024454752604167
 20
-0.6691148546006944
 30
0.0
 10
2.024454752604167
 20
-0.6578165690104166
 30
0.0
 10
2.024454752604167
 20
-0.6465318467881944
 30
0.0
 10
2.026421440972222
 20
-0.63604736328125
 30
0.0
 10
2.030368381076389
 20
-0.6263495551215278
 30
0.0
 10
2.0343017578125
 20
-0.616665310329861
 30
0.0
 10
2.03973388671875
 20
-0.6082560221354166
 30
0.0
 10
2.046657986111111
 20
-0.6011216905381944
 30
0.0
 10
2.053575303819444
 20
-0.5939873589409722
 30
0.0
 10
2.06182861328125
 20
-0.5883992513020833
 30
0.0
 10
2.0714111328125
 20
-0.5843438042534722
 30
0.0
 10
2.081000434027778
 20
-0.5803019205729166
 30
0.0
 10
2.0914306640625
 20
-0.5782809787326388
 30
0.0
 10
2.10272216796875
 20
-0.5782809787326388
 30
0.0
 10
2.116136338975694
 20
-0.5782809787326388
 30
0.0
 10
2.127475314670139
 20
-0.58062744140625
 30
0.0
 10
2.136739095052083
 20
-0.5853068033854166
 30
0.0
 10
2.146002875434028
 20
-0.5899861653645833
 30
0.0
 10
2.153618706597222
 20
-0.5961168077256944
 30
0.0
 10
2.159579806857639
 20
-0.6036716037326388
 30
0.0
 10
2.165540907118055
 20
-0.6112399631076388
 30
0.0
 10
2.169854058159722
 20
-0.6197577582465278
 30
0.0
 10
2.172512478298611
 20
-0.6292249891493055
 30
0.0
 10
2.1751708984375
 20
-0.6387057834201388
 30
0.0
 10
2.176513671875
 20
-0.6483493381076388
 30
0.0
 10
2.176513671875
 20
-0.65814208984375
 30
0.0
 10
2.176513671875
 20
-0.65814208984375
 30
0.0
 10
2.176513671875
 20
-0.6683553059895833
 30
0.0
 10
2.176513671875
 20
-0.6683553059895833
 30
0.0
 10
2.176513671875
 20
-0.6683553059895833
 30
0.0
 10
2.055121527777778
 20
-0.6683553059895833
 30
0.0
 10
2.055121527777778
 20
-0.6683553059895833
 30
0.0
  0
SPLINE
  5
59
330
45
100
AcDbEntity
  8
Layer 1
 62
     1
370
    18
100
AcDbSpline
210
0.0
220
0.0
230
1.0
 70
    11
 71
     3
 72
    32
 73
    28
 74
     0
 42
0.0000000001
 43
0.0000000001
 40
0.0
 40
0.0
 40
0.0
 40
0.0
 40
1.0
 40
1.0
 40
1.0
 40
2.0
 40
2.0
 40
2.0
 40
3.0
 40
3.0
 40
3.0
 40
4.0
 40
4.0
 40
4.0
 40
5.0
 40
5.0
 40
5.0
 40
6.0
 40
6.0
 40
6.0
 40
7.0
 40
7.0
 40
7.0
 40
8.0
 40
8.0
 40
8.0
 40
9.0
 40
9.0
 40
9.0
 40
9.0
 10
2.145846896701389
 20
-0.6453653971354166
 30
0.0
 10
2.1456298828125
 20
-0.63897705078125
 30
0.0
 10
2.144619411892361
 20
-0.63311767578125
 30
0.0
 10
2.142808702256944
 20
-0.6277872721354166
 30
0.0
 10
2.140997992621528
 20
-0.6224704318576388
 30
0.0
 10
2.138285319010417
 20
-0.6178317599826388
 30
0.0
 10
2.134663899739583
 20
-0.6138983832465278
 30
0.0
 10
2.13104248046875
 20
-0.609951443142361
 30
0.0
 10
2.126519097222222
 20
-0.60687255859375
 30
0.0
 10
2.121086968315972
 20
-0.6046346028645833
 30
0.0
 10
2.115654839409722
 20
-0.6023966471354166
 30
0.0
 10
2.109320746527778
 20
-0.6012708875868055
 30
0.0
 10
2.102077907986111
 20
-0.6012708875868055
 30
0.0
 10
2.095052083333333
 20
-0.6012708875868055
 30
0.0
 10
2.088609483506944
 20
-0.6026136610243055
 30
0.0
 10
2.082756890190972
 20
-0.6052720811631944
 30
0.0
 10
2.076897515190972
 20
-0.6079305013020833
 30
0.0
 10
2.071940104166667
 20
-0.61138916015625
 30
0.0
 10
2.067898220486111
 20
-0.6156480577256944
 30
0.0
 10
2.063849555121528
 20
-0.6199205186631944
 30
0.0
 10
2.060709635416667
 20
-0.6246541341145833
 30
0.0
 10
2.058478461371528
 20
-0.6298624674479166
 30
0.0
 10
2.056240505642361
 20
-0.6350843641493055
 30
0.0
 10
2.055121527777778
 20
-0.6402520073784722
 30
0.0
 10
2.055121527777778
 20
-0.6453653971354166
 30
0.0
 10
2.055121527777778
 20
-0.6453653971354166
 30
0.0
 10
2.145846896701389
 20
-0.6453653971354166
 30
0.0
 10
2.145846896701389
 20
-0.6453653971354166
 30
0.0
  0
POLYLINE
  5
5A
330
45
100
AcDbEntity
  8
Layer 1
 62
     1
370
    18
100
AcDb2dPolyline
 66
     1
 10
0.0
 20
0.0
 30
0.0
  0
VERTEX
  5
5B
330
5A
100
AcDbEntity
  8
Layer 1
 62
     1
370
    18
100
AcDbVertex
100
AcDb2dVertex
 10
2.2132568359375
 20
-0.4920315212673611
 30
0.0
  0
VERTEX
  5
5C
330
5A
100
AcDbEntity
  8
Layer 1
 62
     1
370
    18
100
AcDbVertex
100
AcDb2dVertex
 10
2.241997612847222
 20
-0.4920315212673611
 30
0.0
  0
VERTEX
  5
5D
330
5A
100
AcDbEntity
  8
Layer 1
 62
     1
370
    18
100
AcDbVertex
100
AcDb2dVertex
 10
2.241997612847222
 20
-0.7335272894965278
 30
0.0
  0
VERTEX
  5
5E
330
5A
100
AcDbEntity
  8
Layer 1
 62
     1
370
    18
100
AcDbVertex
100
AcDb2dVertex
 10
2.2132568359375
 20
-0.7335272894965278
 30
0.0
  0
VERTEX
  5
5F
330
5A
100
AcDbEntity
  8
Layer 1
 62
     1
370
    18
100
AcDbVertex
100
AcDb2dVertex
 10
2.2132568359375
 20
-0.4920315212673611
 30
0.0
  0
SEQEND
  5
60
330
5A
100
AcDbEntity
  8
Layer 1
370
    18
  0
POLYLINE
  5
61
330
45
100
AcDbEntity
  8
Layer 1
 62
     1
370
    18
100
AcDb2dPolyline
 66
     1
 10
0.0
 20
0.0
 30
0.0
  0
VERTEX
  5
62
330
61
100
AcDbEntity
  8
Layer 1
 62
     1
370
    18
100
AcDbVertex
100
AcDb2dVertex
 10
2.2899169921875
 20
-0.4920315212673611
 30
0.0
  0
VERTEX
  5
63
330
61
100
AcDbEntity
  8
Layer 1
 62
     1
370
    18
100
AcDbVertex
100
AcDb2dVertex
 10
2.318657769097222
 20
-0.4920315212673611
 30
0.0
  0
VERTEX
  5
64
330
61
100
AcDbEntity
  8
Layer 1
 62
     1
370
    18
100
AcDbVertex
100
AcDb2dVertex
 10
2.318657769097222
 20
-0.7335272894965278
 30
0.0
  0
VERTEX
  5
65
330
61
100
AcDbEntity
  8
Layer 1
 62
     1
370
    18
100
AcDbVertex
100
AcDb2dVertex
 10
2.2899169921875
 20
-0.7335272894965278
 30
0.0
  0
VERTEX
  5
66
330
61
100
AcDbEntity
  8
Layer 1
 62
     1
370
    18
100
AcDbVertex
100
AcDb2dVertex
 10
2.2899169921875
 20
-0.4920315212673611
 30
0.0
  0
SEQEND
  5
67
330
61
100
AcDbEntity
  8
Layer 1
370
    18
  0
SPLINE
  5
68
330
45
100
AcDbEntity
  8
Layer 1
 62
     1
370
    18
100
AcDbSpline
210
0.0
220
0.0
230
1.0
 70
    11
 71
     3
 72
    53
 73
    49
 74
     0
 42
0.0000000001
 43
0.0000000001
 40
0.0
 40
0.0
 40
0.0
 40
0.0
 40
1.0
 40
1.0
 40
1.0
 40
2.0
 40
2.0
 40
2.0
 40
3.0
 40
3.0
 40
3.0
 40
4.0
 40
4.0
 40
4.0
 40
5.0
 40
5.0
 40
5.0
 40
6.0
 40
6.0
 40
6.0
 40
7.0
 40
7.0
 40
7.0
 40
8.0
 40
8.0
 40
8.0
 40
9.0
 40
9.0
 40
9.0
 40
10.0
 40
10.0
 40
10.0
 40
11.0
 40
11.0
 40
11.0
 40
12.0
 40
12.0
 40
12.0
 40
13.0
 40
13.0
 40
13.0
 40
14.0
 40
14.0
 40
14.0
 40
15.0
 40
15.0
 40
15.0
 40
16.0
 40
16.0
 40
16.0
 40
16.0
 10
2.357001410590278
 20
-0.6578165690104166
 30
0.0
 10
2.357001410590278
 20
-0.6467488606770833
 30
0.0
 10
2.359063042534722
 20
-0.63641357421875
 30
0.0
 10
2.363213433159722
 20
-0.6268378363715278
 30
0.0
 10
2.367377387152778
 20
-0.61724853515625
 30
0.0
 10
2.373060438368055
 20
-0.6088392469618055
 30
0.0
 10
2.380303276909722
 20
-0.6015964084201388
 30
0.0
 10
2.387546115451389
 20
-0.5943535698784722
 30
0.0
 10
2.396063910590278
 20
-0.5886569552951388
 30
0.0
 10
2.405870225694444
 20
-0.5845065646701388
 30
0.0
 10
2.415662977430555
 20
-0.5803561740451388
 30
0.0
 10
2.426201714409722
 20
-0.5782809787326388
 30
0.0
 10
2.437486436631944
 20
-0.5782809787326388
 30
0.0
 10
2.448771158854167
 20
-0.5782809787326388
 30
0.0
 10
2.459323459201389
 20
-0.5803561740451388
 30
0.0
 10
2.4691162109375
 20
-0.5845065646701388
 30
0.0
 10
2.478908962673611
 20
-0.5886569552951388
 30
0.0
 10
2.4874267578125
 20
-0.5943535698784722
 30
0.0
 10
2.494669596354167
 20
-0.6015964084201388
 30
0.0
 10
2.501912434895833
 20
-0.6088392469618055
 30
0.0
 10
2.507609049479167
 20
-0.61724853515625
 30
0.0
 10
2.511759440104167
 20
-0.6268378363715278
 30
0.0
 10
2.515909830729167
 20
-0.63641357421875
 30
0.0
 10
2.517998589409722
 20
-0.6467488606770833
 30
0.0
 10
2.517998589409722
 20
-0.6578165690104166
 30
0.0
 10
2.517998589409722
 20
-0.6688978407118055
 30
0.0
 10
2.515909830729167
 20
-0.6792738172743055
 30
0.0
 10
2.511759440104167
 20
-0.6889580620659722
 30
0.0
 10
2.507609049479167
 20
-0.6986558702256944
 30
0.0
 10
2.501912434895833
 20
-0.7070651584201388
 30
0.0
 10
2.494669596354167
 20
-0.714199490017361
 30
0.0
 10
2.4874267578125
 20
-0.7213338216145833
 30
0.0
 10
2.478908962673611
 20
-0.7269761827256944
 30
0.0
 10
2.4691162109375
 20
-0.7311265733506944
 30
0.0
 10
2.459323459201389
 20
-0.73529052734375
 30
0.0
 10
2.448771158854167
 20
-0.73736572265625
 30
0.0
 10
2.437486436631944
 20
-0.73736572265625
 30
0.0
 10
2.426201714409722
 20
-0.73736572265625
 30
0.0
 10
2.415662977430555
 20
-0.73529052734375
 30
0.0
 10
2.405870225694444
 20
-0.7311265733506944
 30
0.0
 10
2.396063910590278
 20
-0.7269761827256944
 30
0.0
 10
2.387546115451389
 20
-0.7213338216145833
 30
0.0
 10
2.380303276909722
 20
-0.714199490017361
 30
0.0
 10
2.373060438368055
 20
-0.7070651584201388
 30
0.0
 10
2.367377387152778
 20
-0.6986558702256944
 30
0.0
 10
2.363213433159722
 20
-0.6889580620659722
 30
0.0
 10
2.359063042534722
 20
-0.6792738172743055
 30
0.0
 10
2.357001410590278
 20
-0.6688978407118055
 30
0.0
 10
2.357001410590278
 20
-0.6578165690104166
 30
0.0
  0
SPLINE
  5
69
330
45
100
AcDbEntity
  8
Layer 1
 62
     1
370
    18
100
AcDbSpline
210
0.0
220
0.0
230
1.0
 70
    11
 71
     3
 72
    53
 73
    49
 74
     0
 42
0.0000000001
 43
0.0000000001
 40
0.0
 40
0.0
 40
0.0
 40
0.0
 40
1.0
 40
1.0
 40
1.0
 40
2.0
 40
2.0
 40
2.0
 40
3.0
 40
3.0
 40
3.0
 40
4.0
 40
4.0
 40
4.0
 40
5.0
 40
5.0
 40
5.0
 40
6.0
 40
6.0
 40
6.0
 40
7.0
 40
7.0
 40
7.0
 40
8.0
 40
8.0
 40
8.0
 40
9.0
 40
9.0
 40
9.0
 40
10.0
 40
10.0
 40
10.0
 40
11.0
 40
11.0
 40
11.0
 40
12.0
 40
12.0
 40
12.0
 40
13.0
 40
13.0
 40
13.0
 40
14.0
 40
14.0
 40
14.0
 40
15.0
 40
15.0
 40
15.0
 40
16.0
 40
16.0
 40
16.0
 40
16.0
 10
2.387654622395833
 20
-0.6578165690104166
 30
0.0
 10
2.387654622395833
 20
-0.6654798719618055
 30
0.0
 10
2.388821072048611
 20
-0.672573513454861
 30
0.0
 10
2.391181098090278
 20
-0.6790568033854166
 30
0.0
 10
2.393513997395833
 20
-0.6855672200520833
 30
0.0
 10
2.396809895833333
 20
-0.69110107421875
 30
0.0
 10
2.401082356770833
 20
-0.6956719292534722
 30
0.0
 10
2.405341254340278
 20
-0.70025634765625
 30
0.0
 10
2.410549587673611
 20
-0.7038777669270833
 30
0.0
 10
2.416734483506944
 20
-0.7065361870659722
 30
0.0
 10
2.422905815972222
 20
-0.709194607204861
 30
0.0
 10
2.429823133680555
 20
-0.7105238172743055
 30
0.0
 10
2.437486436631944
 20
-0.7105238172743055
 30
0.0
 10
2.445163302951389
 20
-0.7105238172743055
 30
0.0
 10
2.452080620659722
 20
-0.709194607204861
 30
0.0
 10
2.458265516493055
 20
-0.7065361870659722
 30
0.0
 10
2.464423285590278
 20
-0.7038777669270833
 30
0.0
 10
2.469645182291667
 20
-0.70025634765625
 30
0.0
 10
2.473917643229167
 20
-0.6956719292534722
 30
0.0
 10
2.478176540798611
 20
-0.69110107421875
 30
0.0
 10
2.481458875868055
 20
-0.6855672200520833
 30
0.0
 10
2.483818901909722
 20
-0.6790568033854166
 30
0.0
 10
2.486151801215278
 20
-0.672573513454861
 30
0.0
 10
2.487318250868055
 20
-0.6654798719618055
 30
0.0
 10
2.487318250868055
 20
-0.6578165690104166
 30
0.0
 10
2.487318250868055
 20
-0.6501532660590278
 30
0.0
 10
2.486151801215278
 20
-0.6430731879340278
 30
0.0
 10
2.483818901909722
 20
-0.6365763346354166
 30
0.0
 10
2.481458875868055
 20
-0.6300794813368055
 30
0.0
 10
2.478176540798611
 20
-0.6245456271701388
 30
0.0
 10
2.473917643229167
 20
-0.619961208767361
 30
0.0
 10
2.469645182291667
 20
-0.6153903537326388
 30
0.0
 10
2.464423285590278
 20
-0.6117689344618055
 30
0.0
 10
2.458265516493055
 20
-0.609096950954861
 30
0.0
 10
2.452080620659722
 20
-0.6064385308159722
 30
0.0
 10
2.445163302951389
 20
-0.6051093207465278
 30
0.0
 10
2.437486436631944
 20
-0.6051093207465278
 30
0.0
 10
2.429823133680555
 20
-0.6051093207465278
 30
0.0
 10
2.422905815972222
 20
-0.6064385308159722
 30
0.0
 10
2.416734483506944
 20
-0.609096950954861
 30
0.0
 10
2.410549587673611
 20
-0.6117689344618055
 30
0.0
 10
2.405341254340278
 20
-0.6153903537326388
 30
0.0
 10
2.401082356770833
 20
-0.619961208767361
 30
0.0
 10
2.396809895833333
 20
-0.6245456271701388
 30
0.0
 10
2.393513997395833
 20
-0.6300794813368055
 30
0.0
 10
2.391181098090278
 20
-0.6365763346354166
 30
0.0
 10
2.388821072048611
 20
-0.6430731879340278
 30
0.0
 10
2.387654622395833
 20
-0.6501532660590278
 30
0.0
 10
2.387654622395833
 20
-0.6578165690104166
 30
0.0
  0
SPLINE
  5
6A
330
45
100
AcDbEntity
  8
Layer 1
 62
     1
370
    18
100
AcDbSpline
210
0.0
220
0.0
230
1.0
 70
    11
 71
     3
 72
   119
 73
   115
 74
     0
 42
0.0000000001
 43
0.0000000001
 40
0.0
 40
0.0
 40
0.0
 40
0.0
 40
1.0
 40
1.0
 40
1.0
 40
2.0
 40
2.0
 40
2.0
 40
3.0
 40
3.0
 40
3.0
 40
4.0
 40
4.0
 40
4.0
 40
5.0
 40
5.0
 40
5.0
 40
6.0
 40
6.0
 40
6.0
 40
7.0
 40
7.0
 40
7.0
 40
8.0
 40
8.0
 40
8.0
 40
9.0
 40
9.0
 40
9.0
 40
10.0
 40
10.0
 40
10.0
 40
11.0
 40
11.0
 40
11.0
 40
12.0
 40
12.0
 40
12.0
 40
13.0
 40
13.0
 40
13.0
 40
14.0
 40
14.0
 40
14.0
 40
15.0
 40
15.0
 40
15.0
 40
16.0
 40
16.0
 40
16.0
 40
17.0
 40
17.0
 40
17.0
 40
18.0
 40
18.0
 40
18.0
 40
19.0
 40
19.0
 40
19.0
 40
20.0
 40
20.0
 40
20.0
 40
21.0
 40
21.0
 40
21.0
 40
22.0
 40
22.0
 40
22.0
 40
23.0
 40
23.0
 40
23.0
 40
24.0
 40
24.0
 40
24.0
 40
25.0
 40
25.0
 40
25.0
 40
26.0
 40
26.0
 40
26.0
 40
27.0
 40
27.0
 40
27.0
 40
28.0
 40
28.0
 40
28.0
 40
29.0
 40
29.0
 40
29.0
 40
30.0
 40
30.0
 40
30.0
 40
31.0
 40
31.0
 40
31.0
 40
32.0
 40
32.0
 40
32.0
 40
33.0
 40
33.0
 40
33.0
 40
34.0
 40
34.0
 40
34.0
 40
35.0
 40
35.0
 40
35.0
 40
36.0
 40
36.0
 40
36.0
 40
37.0
 40
37.0
 40
37.0
 40
38.0
 40
38.0
 40
38.0
 40
38.0
 10
1.742085774739583
 20
-0.8211873372395833
 30
0.0
 10
1.742085774739583
 20
-0.8211873372395833
 30
0.0
 10
1.756089952256944
 20
-0.8211873372395833
 30
0.0
 10
1.756089952256944
 20
-0.8211873372395833
 30
0.0
 10
1.756089952256944
 20
-0.8211873372395833
 30
0.0
 10
1.756089952256944
 20
-0.8335300021701388
 30
0.0
 10
1.756089952256944
 20
-0.8335300021701388
 30
0.0
 10
1.756089952256944
 20
-0.8335300021701388
 30
0.0
 10
1.756422254774305
 20
-0.8335300021701388
 30
0.0
 10
1.756422254774305
 20
-0.8335300021701388
 30
0.0
 10
1.756754557291667
 20
-0.8324178059895833
 30
0.0
 10
1.757615831163194
 20
-0.831020779079861
 30
0.0
 10
1.759006076388889
 20
-0.8293660481770833
 30
0.0
 10
1.760389539930555
 20
-0.82769775390625
 30
0.0
 10
1.762173122829861
 20
-0.82611083984375
 30
0.0
 10
1.764336480034722
 20
-0.8246053059895833
 30
0.0
 10
1.766506618923611
 20
-0.8231133355034722
 30
0.0
 10
1.769056532118055
 20
-0.82183837890625
 30
0.0
 10
1.772006564670139
 20
-0.8207804361979166
 30
0.0
 10
1.774943033854167
 20
-0.8197224934895833
 30
0.0
 10
1.7781982421875
 20
-0.8191935221354166
 30
0.0
 10
1.781751844618055
 20
-0.8191935221354166
 30
0.0
 10
1.787638346354167
 20
-0.8191935221354166
 30
0.0
 10
1.792588975694444
 20
-0.8204142252604166
 30
0.0
 10
1.796590169270833
 20
-0.8228556315104166
 30
0.0
 10
1.800584581163194
 20
-0.8253106011284722
 30
0.0
 10
1.803860134548611
 20
-0.8289727105034722
 30
0.0
 10
1.806423611111111
 20
-0.8338555230034722
 30
0.0
 10
1.808973524305555
 20
-0.8289727105034722
 30
0.0
 10
1.812588161892361
 20
-0.8253106011284722
 30
0.0
 10
1.817253960503472
 20
-0.8228556315104166
 30
0.0
 10
1.821919759114583
 20
-0.8204142252604166
 30
0.0
 10
1.826639811197917
 20
-0.8191935221354166
 30
0.0
 10
1.8314208984375
 20
-0.8191935221354166
 30
0.0
 10
1.837531195746528
 20
-0.8191935221354166
 30
0.0
 10
1.842529296875
 20
-0.8201972113715277
 30
0.0
 10
1.846421983506944
 20
-0.8221910264756944
 30
0.0
 10
1.850307888454861
 20
-0.8241984049479166
 30
0.0
 10
1.853359646267361
 20
-0.8268296983506944
 30
0.0
 10
1.855584038628472
 20
-0.8301120334201388
 30
0.0
 10
1.857808430989583
 20
-0.8333943684895833
 30
0.0
 10
1.859334309895833
 20
-0.8371107313368055
 30
0.0
 10
1.86016845703125
 20
-0.841274685329861
 30
0.0
 10
1.861002604166667
 20
-0.8454386393229166
 30
0.0
 10
1.861423068576389
 20
-0.8497517903645833
 30
0.0
 10
1.861423068576389
 20
-0.8542005750868055
 30
0.0
 10
1.861423068576389
 20
-0.8542005750868055
 30
0.0
 10
1.861423068576389
 20
-0.9001939561631944
 30
0.0
 10
1.861423068576389
 20
-0.9001939561631944
 30
0.0
 10
1.861423068576389
 20
-0.9001939561631944
 30
0.0
 10
1.846421983506944
 20
-0.9001939561631944
 30
0.0
 10
1.846421983506944
 20
-0.9001939561631944
 30
0.0
 10
1.846421983506944
 20
-0.9001939561631944
 30
0.0
 10
1.846421983506944
 20
-0.8561943901909722
 30
0.0
 10
1.846421983506944
 20
-0.8561943901909722
 30
0.0
 10
1.846421983506944
 20
-0.8531968858506944
 30
0.0
 10
1.846225314670139
 20
-0.850307888454861
 30
0.0
 10
1.845838758680555
 20
-0.8475273980034722
 30
0.0
 10
1.845445421006944
 20
-0.8447469075520833
 30
0.0
 10
1.844638400607639
 20
-0.8423055013020833
 30
0.0
 10
1.843417697482639
 20
-0.8401896158854166
 30
0.0
 10
1.842196994357639
 20
-0.8380872938368055
 30
0.0
 10
1.840474446614583
 20
-0.836391872829861
 30
0.0
 10
1.8382568359375
 20
-0.8351169162326388
 30
0.0
 10
1.836032443576389
 20
-0.833828396267361
 30
0.0
 10
1.833089192708333
 20
-0.83319091796875
 30
0.0
 10
1.829420301649305
 20
-0.83319091796875
 30
0.0
 10
1.822197808159722
 20
-0.83319091796875
 30
0.0
 10
1.817030164930555
 20
-0.835415310329861
 30
0.0
 10
1.813917371961805
 20
-0.8398640950520833
 30
0.0
 10
1.810811360677083
 20
-0.84429931640625
 30
0.0
 10
1.809251573350694
 20
-0.8500230577256944
 30
0.0
 10
1.809251573350694
 20
-0.857021755642361
 30
0.0
 10
1.809251573350694
 20
-0.857021755642361
 30
0.0
 10
1.809251573350694
 20
-0.9001939561631944
 30
0.0
 10
1.809251573350694
 20
-0.9001939561631944
 30
0.0
 10
1.809251573350694
 20
-0.9001939561631944
 30
0.0
 10
1.79425048828125
 20
-0.9001939561631944
 30
0.0
 10
1.79425048828125
 20
-0.9001939561631944
 30
0.0
 10
1.79425048828125
 20
-0.9001939561631944
 30
0.0
 10
1.79425048828125
 20
-0.8588663736979166
 30
0.0
 10
1.79425048828125
 20
-0.8588663736979166
 30
0.0
 10
1.79425048828125
 20
-0.8550821940104166
 30
0.0
 10
1.794060601128472
 20
-0.8516370985243055
 30
0.0
 10
1.793667263454861
 20
-0.8485310872395833
 30
0.0
 10
1.793280707465278
 20
-0.8454115125868055
 30
0.0
 10
1.792500813802083
 20
-0.8427259657118055
 30
0.0
 10
1.791334364149305
 20
-0.8404473198784722
 30
0.0
 10
1.790167914496528
 20
-0.8381686740451388
 30
0.0
 10
1.788506401909722
 20
-0.836391872829861
 30
0.0
 10
1.786336263020833
 20
-0.8351169162326388
 30
0.0
 10
1.784172905815972
 20
-0.833828396267361
 30
0.0
 10
1.781256781684028
 20
-0.83319091796875
 30
0.0
 10
1.777587890625
 20
-0.83319091796875
 30
0.0
 10
1.774922688802083
 20
-0.83319091796875
 30
0.0
 10
1.7723388671875
 20
-0.8337198893229166
 30
0.0
 10
1.76983642578125
 20
-0.83477783203125
 30
0.0
 10
1.767333984375
 20
-0.8358357747395833
 30
0.0
 10
1.765143500434028
 20
-0.8374226888020833
 30
0.0
 10
1.763251410590278
 20
-0.8395250108506944
 30
0.0
 10
1.761366102430555
 20
-0.841640896267361
 30
0.0
 10
1.759860568576389
 20
-0.8443400065104166
 30
0.0
 10
1.758755154079861
 20
-0.8476087782118055
 30
0.0
 10
1.757642957899305
 20
-0.85089111328125
 30
0.0
 10
1.757086859809028
 20
-0.8547566731770833
 30
0.0
 10
1.757086859809028
 20
-0.85919189453125
 30
0.0
 10
1.757086859809028
 20
-0.85919189453125
 30
0.0
 10
1.757086859809028
 20
-0.9001939561631944
 30
0.0
 10
1.757086859809028
 20
-0.9001939561631944
 30
0.0
 10
1.757086859809028
 20
-0.9001939561631944
 30
0.0
 10
1.742085774739583
 20
-0.9001939561631944
 30
0.0
 10
1.742085774739583
 20
-0.9001939561631944
 30
0.0
 10
1.742085774739583
 20
-0.9001939561631944
 30
0.0
 10
1.742085774739583
 20
-0.8211873372395833
 30
0.0
 10
1.742085774739583
 20
-0.8211873372395833
 30
0.0
  0
SPLINE
  5
6B
330
45
100
AcDbEntity
  8
Layer 1
 62
     1
370
    18
100
AcDbSpline
210
0.0
220
0.0
230
1.0
 70
    11
 71
     3
 72
    65
 73
    61
 74
     0
 42
0.0000000001
 43
0.0000000001
 40
0.0
 40
0.0
 40
0.0
 40
0.0
 40
1.0
 40
1.0
 40
1.0
 40
2.0
 40
2.0
 40
2.0
 40
3.0
 40
3.0
 40
3.0
 40
4.0
 40
4.0
 40
4.0
 40
5.0
 40
5.0
 40
5.0
 40
6.0
 40
6.0
 40
6.0
 40
7.0
 40
7.0
 40
7.0
 40
8.0
 40
8.0
 40
8.0
 40
9.0
 40
9.0
 40
9.0
 40
10.0
 40
10.0
 40
10.0
 40
11.0
 40
11.0
 40
11.0
 40
12.0
 40
12.0
 40
12.0
 40
13.0
 40
13.0
 40
13.0
 40
14.0
 40
14.0
 40
14.0
 40
15.0
 40
15.0
 40
15.0
 40
16.0
 40
16.0
 40
16.0
 40
17.0
 40
17.0
 40
17.0
 40
18.0
 40
18.0
 40
18.0
 40
19.0
 40
19.0
 40
19.0
 40
20.0
 40
20.0
 40
20.0
 40
20.0
 10
1.874755859375
 20
-0.8211873372395833
 30
0.0
 10
1.874755859375
 20
-0.8211873372395833
 30
0.0
 10
1.89208984375
 20
-0.8211873372395833
 30
0.0
 10
1.89208984375
 20
-0.8211873372395833
 30
0.0
 10
1.89208984375
 20
-0.8211873372395833
 30
0.0
 10
1.915479871961805
 20
-0.8828599717881944
 30
0.0
 10
1.915479871961805
 20
-0.8828599717881944
 30
0.0
 10
1.915479871961805
 20
-0.8828599717881944
 30
0.0
 10
1.915818956163194
 20
-0.8828599717881944
 30
0.0
 10
1.915818956163194
 20
-0.8828599717881944
 30
0.0
 10
1.915818956163194
 20
-0.8828599717881944
 30
0.0
 10
1.938252766927083
 20
-0.8211873372395833
 30
0.0
 10
1.938252766927083
 20
-0.8211873372395833
 30
0.0
 10
1.938252766927083
 20
-0.8211873372395833
 30
0.0
 10
1.954257541232639
 20
-0.8211873372395833
 30
0.0
 10
1.954257541232639
 20
-0.8211873372395833
 30
0.0
 10
1.954257541232639
 20
-0.8211873372395833
 30
0.0
 10
1.916754828559028
 20
-0.9171888563368055
 30
0.0
 10
1.916754828559028
 20
-0.9171888563368055
 30
0.0
 10
1.915425618489583
 20
-0.9206339518229166
 30
0.0
 10
1.914042154947917
 20
-0.9237806532118055
 30
0.0
 10
1.912604437934028
 20
-0.9266153971354166
 30
0.0
 10
1.911166720920139
 20
-0.9294501410590277
 30
0.0
 10
1.909450954861111
 20
-0.9318644205729166
 30
0.0
 10
1.907463921440972
 20
-0.9338582356770833
 30
0.0
 10
1.905470106336805
 20
-0.9358656141493055
 30
0.0
 10
1.903062608506944
 20
-0.9374118381076388
 30
0.0
 10
1.900241427951389
 20
-0.9385240342881944
 30
0.0
 10
1.897413465711805
 20
-0.93963623046875
 30
0.0
 10
1.893961588541667
 20
-0.9401923285590277
 30
0.0
 10
1.889865451388889
 20
-0.9401923285590277
 30
0.0
 10
1.887654622395833
 20
-0.9401923285590277
 30
0.0
 10
1.885409884982639
 20
-0.9400566948784722
 30
0.0
 10
1.883144802517361
 20
-0.9397718641493055
 30
0.0
 10
1.880872938368055
 20
-0.9395005967881944
 30
0.0
 10
1.878689236111111
 20
-0.9389173719618055
 30
0.0
 10
1.8765869140625
 20
-0.9380221896701388
 30
0.0
 10
1.8765869140625
 20
-0.9380221896701388
 30
0.0
 10
1.878411187065972
 20
-0.9243638780381944
 30
0.0
 10
1.878411187065972
 20
-0.9243638780381944
 30
0.0
 10
1.881388346354167
 20
-0.9255845811631944
 30
0.0
 10
1.884372287326389
 20
-0.9261949327256944
 30
0.0
 10
1.887356228298611
 20
-0.9261949327256944
 30
0.0
 10
1.889668782552083
 20
-0.9261949327256944
 30
0.0
 10
1.891628689236111
 20
-0.9258829752604166
 30
0.0
 10
1.893229166666667
 20
-0.9252726236979166
 30
0.0
 10
1.894829644097222
 20
-0.9246622721354166
 30
0.0
 10
1.896213107638889
 20
-0.9237806532118055
 30
0.0
 10
1.897372775607639
 20
-0.9226142035590277
 30
0.0
 10
1.898532443576389
 20
-0.92144775390625
 30
0.0
 10
1.899495442708333
 20
-0.9200778537326388
 30
0.0
 10
1.9002685546875
 20
-0.9185316297743055
 30
0.0
 10
1.901041666666667
 20
-0.9169718424479166
 30
0.0
 10
1.901814778645833
 20
-0.9151950412326388
 30
0.0
 10
1.902587890625
 20
-0.9131876627604166
 30
0.0
 10
1.902587890625
 20
-0.9131876627604166
 30
0.0
 10
1.907443576388889
 20
-0.90069580078125
 30
0.0
 10
1.907443576388889
 20
-0.90069580078125
 30
0.0
 10
1.907443576388889
 20
-0.90069580078125
 30
0.0
 10
1.874755859375
 20
-0.8211873372395833
 30
0.0
 10
1.874755859375
 20
-0.8211873372395833
 30
0.0
  0
SPLINE
  5
6C
330
45
100
AcDbEntity
  8
Layer 1
 62
     1
370
    18
100
AcDbSpline
210
0.0
220
0.0
230
1.0
 70
    11
 71
     3
 72
    74
 73
    70
 74
     0
 42
0.0000000001
 43
0.0000000001
 40
0.0
 40
0.0
 40
0.0
 40
0.0
 40
1.0
 40
1.0
 40
1.0
 40
2.0
 40
2.0
 40
2.0
 40
3.0
 40
3.0
 40
3.0
 40
4.0
 40
4.0
 40
4.0
 40
5.0
 40
5.0
 40
5.0
 40
6.0
 40
6.0
 40
6.0
 40
7.0
 40
7.0
 40
7.0
 40
8.0
 40
8.0
 40
8.0
 40
9.0
 40
9.0
 40
9.0
 40
10.0
 40
10.0
 40
10.0
 40
11.0
 40
11.0
 40
11.0
 40
12.0
 40
12.0
 40
12.0
 40
13.0
 40
13.0
 40
13.0
 40
14.0
 40
14.0
 40
14.0
 40
15.0
 40
15.0
 40
15.0
 40
16.0
 40
16.0
 40
16.0
 40
17.0
 40
17.0
 40
17.0
 40
18.0
 40
18.0
 40
18.0
 40
19.0
 40
19.0
 40
19.0
 40
20.0
 40
20.0
 40
20.0
 40
21.0
 40
21.0
 40
21.0
 40
22.0
 40
22.0
 40
22.0
 40
23.0
 40
23.0
 40
23.0
 40
23.0
 10
2.013753255208333
 20
-0.8211873372395833
 30
0.0
 10
2.013753255208333
 20
-0.8211873372395833
 30
0.0
 10
2.028754340277778
 20
-0.8211873372395833
 30
0.0
 10
2.028754340277778
 20
-0.8211873372395833
 30
0.0
 10
2.028754340277778
 20
-0.8211873372395833
 30
0.0
 10
2.028754340277778
 20
-0.8333672417534722
 30
0.0
 10
2.028754340277778
 20
-0.8333672417534722
 30
0.0
 10
2.028754340277778
 20
-0.8333672417534722
 30
0.0
 10
2.029086642795139
 20
-0.8333672417534722
 30
0.0
 10
2.029086642795139
 20
-0.8333672417534722
 30
0.0
 10
2.030978732638889
 20
-0.8291354709201388
 30
0.0
 10
2.034254286024305
 20
-0.8257175021701388
 30
0.0
 10
2.038920084635417
 20
-0.8231133355034722
 30
0.0
 10
2.043585883246528
 20
-0.82049560546875
 30
0.0
 10
2.048977322048611
 20
-0.8191935221354166
 30
0.0
 10
2.055087619357639
 20
-0.8191935221354166
 30
0.0
 10
2.058865017361111
 20
-0.8191935221354166
 30
0.0
 10
2.062506781684028
 20
-0.8197767469618055
 30
0.0
 10
2.066006130642361
 20
-0.8209431966145833
 30
0.0
 10
2.069505479600694
 20
-0.822109646267361
 30
0.0
 10
2.072557237413194
 20
-0.82391357421875
 30
0.0
 10
2.075168185763889
 20
-0.82635498046875
 30
0.0
 10
2.077779134114583
 20
-0.8288099500868055
 30
0.0
 10
2.079861111111111
 20
-0.8319430881076388
 30
0.0
 10
2.0814208984375
 20
-0.835781521267361
 30
0.0
 10
2.082973904079861
 20
-0.8396063910590277
 30
0.0
 10
2.083753797743055
 20
-0.8441365559895833
 30
0.0
 10
2.083753797743055
 20
-0.8493584526909722
 30
0.0
 10
2.083753797743055
 20
-0.8493584526909722
 30
0.0
 10
2.083753797743055
 20
-0.9001939561631944
 30
0.0
 10
2.083753797743055
 20
-0.9001939561631944
 30
0.0
 10
2.083753797743055
 20
-0.9001939561631944
 30
0.0
 10
2.068752712673611
 20
-0.9001939561631944
 30
0.0
 10
2.068752712673611
 20
-0.9001939561631944
 30
0.0
 10
2.068752712673611
 20
-0.9001939561631944
 30
0.0
 10
2.068752712673611
 20
-0.8535224066840277
 30
0.0
 10
2.068752712673611
 20
-0.8535224066840277
 30
0.0
 10
2.068752712673611
 20
-0.8498602973090277
 30
0.0
 10
2.068257649739583
 20
-0.8467271592881944
 30
0.0
 10
2.067253960503472
 20
-0.8441094292534722
 30
0.0
 10
2.066257052951389
 20
-0.8415052625868055
 30
0.0
 10
2.064921061197917
 20
-0.8393893771701388
 30
0.0
 10
2.063252766927083
 20
-0.8377753363715277
 30
0.0
 10
2.06158447265625
 20
-0.8361612955729166
 30
0.0
 10
2.059672037760417
 20
-0.8349948459201388
 30
0.0
 10
2.057501898871528
 20
-0.8342759874131944
 30
0.0
 10
2.055338541666667
 20
-0.83355712890625
 30
0.0
 10
2.053087022569444
 20
-0.83319091796875
 30
0.0
 10
2.050754123263889
 20
-0.83319091796875
 30
0.0
 10
2.047641330295139
 20
-0.83319091796875
 30
0.0
 10
2.044752332899305
 20
-0.8336927625868055
 30
0.0
 10
2.042087131076389
 20
-0.8346964518229166
 30
0.0
 10
2.039421929253472
 20
-0.8357001410590277
 30
0.0
 10
2.037089029947917
 20
-0.8372734917534722
 30
0.0
 10
2.035088433159722
 20
-0.839443630642361
 30
0.0
 10
2.033087836371528
 20
-0.84161376953125
 30
0.0
 10
2.031528049045139
 20
-0.8443671332465277
 30
0.0
 10
2.030422634548611
 20
-0.8476901584201388
 30
0.0
 10
2.029310438368055
 20
-0.8510267469618055
 30
0.0
 10
2.028754340277778
 20
-0.8549736870659722
 30
0.0
 10
2.028754340277778
 20
-0.8595309787326388
 30
0.0
 10
2.028754340277778
 20
-0.8595309787326388
 30
0.0
 10
2.028754340277778
 20
-0.9001939561631944
 30
0.0
 10
2.028754340277778
 20
-0.9001939561631944
 30
0.0
 10
2.028754340277778
 20
-0.9001939561631944
 30
0.0
 10
2.013753255208333
 20
-0.9001939561631944
 30
0.0
 10
2.013753255208333
 20
-0.9001939561631944
 30
0.0
 10
2.013753255208333
 20
-0.9001939561631944
 30
0.0
 10
2.013753255208333
 20
-0.8211873372395833
 30
0.0
 10
2.013753255208333
 20
-0.8211873372395833
 30
0.0
  0
SPLINE
  5
6D
330
45
100
AcDbEntity
  8
Layer 1
 62
     1
370
    18
100
AcDbSpline
210
0.0
220
0.0
230
1.0
 70
    11
 71
     3
 72
   104
 73
   100
 74
     0
 42
0.0000000001
 43
0.0000000001
 40
0.0
 40
0.0
 40
0.0
 40
0.0
 40
1.0
 40
1.0
 40
1.0
 40
2.0
 40
2.0
 40
2.0
 40
3.0
 40
3.0
 40
3.0
 40
4.0
 40
4.0
 40
4.0
 40
5.0
 40
5.0
 40
5.0
 40
6.0
 40
6.0
 40
6.0
 40
7.0
 40
7.0
 40
7.0
 40
8.0
 40
8.0
 40
8.0
 40
9.0
 40
9.0
 40
9.0
 40
10.0
 40
10.0
 40
10.0
 40
11.0
 40
11.0
 40
11.0
 40
12.0
 40
12.0
 40
12.0
 40
13.0
 40
13.0
 40
13.0
 40
14.0
 40
14.0
 40
14.0
 40
15.0
 40
15.0
 40
15.0
 40
16.0
 40
16.0
 40
16.0
 40
17.0
 40
17.0
 40
17.0
 40
18.0
 40
18.0
 40
18.0
 40
19.0
 40
19.0
 40
19.0
 40
20.0
 40
20.0
 40
20.0
 40
21.0
 40
21.0
 40
21.0
 40
22.0
 40
22.0
 40
22.0
 40
23.0
 40
23.0
 40
23.0
 40
24.0
 40
24.0
 40
24.0
 40
25.0
 40
25.0
 40
25.0
 40
26.0
 40
26.0
 40
26.0
 40
27.0
 40
27.0
 40
27.0
 40
28.0
 40
28.0
 40
28.0
 40
29.0
 40
29.0
 40
29.0
 40
30.0
 40
30.0
 40
30.0
 40
31.0
 40
31.0
 40
31.0
 40
32.0
 40
32.0
 40
32.0
 40
33.0
 40
33.0
 40
33.0
 40
33.0
 10
2.10675048828125
 20
-0.8308580186631944
 30
0.0
 10
2.110975477430555
 20
-0.8269788953993055
 30
0.0
 10
2.115865071614583
 20
-0.8240492078993055
 30
0.0
 10
2.121419270833333
 20
-0.822109646267361
 30
0.0
 10
2.126973470052083
 20
-0.8201700846354166
 30
0.0
 10
2.132527669270833
 20
-0.8191935221354166
 30
0.0
 10
2.138088650173611
 20
-0.8191935221354166
 30
0.0
 10
2.14385986328125
 20
-0.8191935221354166
 30
0.0
 10
2.148837619357639
 20
-0.819912380642361
 30
0.0
 10
2.153001573350694
 20
-0.8213636610243055
 30
0.0
 10
2.157172309027778
 20
-0.8228013780381944
 30
0.0
 10
2.16058349609375
 20
-0.8247545030381944
 30
0.0
 10
2.163255479600694
 20
-0.8271959092881944
 30
0.0
 10
2.165920681423611
 20
-0.8296373155381944
 30
0.0
 10
2.167887369791667
 20
-0.8324449327256944
 30
0.0
 10
2.169169108072917
 20
-0.8356051974826388
 30
0.0
 10
2.170450846354167
 20
-0.8387790256076388
 30
0.0
 10
2.171088324652778
 20
-0.8420884874131944
 30
0.0
 10
2.171088324652778
 20
-0.8455335828993055
 30
0.0
 10
2.171088324652778
 20
-0.8455335828993055
 30
0.0
 10
2.171088324652778
 20
-0.8858574761284722
 30
0.0
 10
2.171088324652778
 20
-0.8858574761284722
 30
0.0
 10
2.171088324652778
 20
-0.888637966579861
 30
0.0
 10
2.171142578125
 20
-0.8911878797743055
 30
0.0
 10
2.171251085069444
 20
-0.893520779079861
 30
0.0
 10
2.171359592013889
 20
-0.8958672417534722
 30
0.0
 10
2.171535915798611
 20
-0.8980780707465277
 30
0.0
 10
2.1717529296875
 20
-0.9001939561631944
 30
0.0
 10
2.1717529296875
 20
-0.9001939561631944
 30
0.0
 10
2.158420138888889
 20
-0.9001939561631944
 30
0.0
 10
2.158420138888889
 20
-0.9001939561631944
 30
0.0
 10
2.158087836371528
 20
-0.8961927625868055
 30
0.0
 10
2.157918294270833
 20
-0.8921915690104166
 30
0.0
 10
2.157918294270833
 20
-0.8881903754340277
 30
0.0
 10
2.157918294270833
 20
-0.8881903754340277
 30
0.0
 10
2.157585991753472
 20
-0.8881903754340277
 30
0.0
 10
2.157585991753472
 20
-0.8881903754340277
 30
0.0
 10
2.154249403211805
 20
-0.8933037651909722
 30
0.0
 10
2.150309244791667
 20
-0.89691162109375
 30
0.0
 10
2.145751953125
 20
-0.8990275065104166
 30
0.0
 10
2.141194661458333
 20
-0.9011433919270833
 30
0.0
 10
2.135918511284722
 20
-0.902187771267361
 30
0.0
 10
2.129916720920139
 20
-0.902187771267361
 30
0.0
 10
2.126254611545139
 20
-0.902187771267361
 30
0.0
 10
2.122755262586805
 20
-0.901699490017361
 30
0.0
 10
2.119418674045139
 20
-0.90069580078125
 30
0.0
 10
2.1160888671875
 20
-0.8996921115451388
 30
0.0
 10
2.113165961371528
 20
-0.8982001410590277
 30
0.0
 10
2.110670301649305
 20
-0.8961927625868055
 30
0.0
 10
2.108167860243055
 20
-0.8941989474826388
 30
0.0
 10
2.106194390190972
 20
-0.8917168511284722
 30
0.0
 10
2.104749891493055
 20
-0.8887736002604166
 30
0.0
 10
2.103305392795139
 20
-0.885830349392361
 30
0.0
 10
2.102586534288194
 20
-0.882412380642361
 30
0.0
 10
2.102586534288194
 20
-0.8785332573784722
 30
0.0
 10
2.102586534288194
 20
-0.8734198676215277
 30
0.0
 10
2.103725857204861
 20
-0.8691338433159722
 30
0.0
 10
2.106004503038194
 20
-0.865688747829861
 30
0.0
 10
2.1082763671875
 20
-0.8622572157118055
 30
0.0
 10
2.11138916015625
 20
-0.8594495985243055
 30
0.0
 10
2.115336100260417
 20
-0.8572794596354166
 30
0.0
 10
2.119276258680555
 20
-0.8551093207465277
 30
0.0
 10
2.123887803819444
 20
-0.8535495334201388
 30
0.0
 10
2.129170735677083
 20
-0.8526136610243055
 30
0.0
 10
2.134446885850694
 20
-0.8516642252604166
 30
0.0
 10
2.140089246961805
 20
-0.8511895073784722
 30
0.0
 10
2.146084255642361
 20
-0.8511895073784722
 30
0.0
 10
2.146084255642361
 20
-0.8511895073784722
 30
0.0
 10
2.157084147135417
 20
-0.8511895073784722
 30
0.0
 10
2.157084147135417
 20
-0.8511895073784722
 30
0.0
 10
2.157084147135417
 20
-0.8511895073784722
 30
0.0
 10
2.157084147135417
 20
-0.847866482204861
 30
0.0
 10
2.157084147135417
 20
-0.847866482204861
 30
0.0
 10
2.157084147135417
 20
-0.8458591037326388
 30
0.0
 10
2.156697591145833
 20
-0.8438652886284722
 30
0.0
 10
2.155917697482639
 20
-0.84185791015625
 30
0.0
 10
2.155137803819444
 20
-0.8398640950520833
 30
0.0
 10
2.153971354166667
 20
-0.8380601671006944
 30
0.0
 10
2.152418348524305
 20
-0.8364461263020833
 30
0.0
 10
2.150865342881944
 20
-0.8348320855034722
 30
0.0
 10
2.148918999565972
 20
-0.83355712890625
 30
0.0
 10
2.146586100260417
 20
-0.832607693142361
 30
0.0
 10
2.144253200954861
 20
-0.8316718207465277
 30
0.0
 10
2.141472710503472
 20
-0.8311971028645833
 30
0.0
 10
2.138251410590278
 20
-0.8311971028645833
 30
0.0
 10
2.135362413194444
 20
-0.8311971028645833
 30
0.0
 10
2.132832845052083
 20
-0.8314683702256944
 30
0.0
 10
2.130669487847222
 20
-0.8320244683159722
 30
0.0
 10
2.128499348958333
 20
-0.83258056640625
 30
0.0
 10
2.12652587890625
 20
-0.8332722981770833
 30
0.0
 10
2.124755859375
 20
-0.8341132269965277
 30
0.0
 10
2.122972276475694
 20
-0.8349405924479166
 30
0.0
 10
2.121365017361111
 20
-0.8359171549479166
 30
0.0
 10
2.119920518663194
 20
-0.8370293511284722
 30
0.0
 10
2.118476019965278
 20
-0.8381415473090277
 30
0.0
 10
2.117085774739583
 20
-0.839199490017361
 30
0.0
 10
2.115749782986111
 20
-0.8401896158854166
 30
0.0
 10
2.115749782986111
 20
-0.8401896158854166
 30
0.0
 10
2.10675048828125
 20
-0.8308580186631944
 30
0.0
 10
2.10675048828125
 20
-0.8308580186631944
 30
0.0
  0
SPLINE
  5
6E
330
45
100
AcDbEntity
  8
Layer 1
 62
     1
370
    18
100
AcDbSpline
210
0.0
220
0.0
230
1.0
 70
    11
 71
     3
 72
    41
 73
    37
 74
     0
 42
0.0000000001
 43
0.0000000001
 40
0.0
 40
0.0
 40
0.0
 40
0.0
 40
1.0
 40
1.0
 40
1.0
 40
2.0
 40
2.0
 40
2.0
 40
3.0
 40
3.0
 40
3.0
 40
4.0
 40
4.0
 40
4.0
 40
5.0
 40
5.0
 40
5.0
 40
6.0
 40
6.0
 40
6.0
 40
7.0
 40
7.0
 40
7.0
 40
8.0
 40
8.0
 40
8.0
 40
9.0
 40
9.0
 40
9.0
 40
10.0
 40
10.0
 40
10.0
 40
11.0
 40
11.0
 40
11.0
 40
12.0
 40
12.0
 40
12.0
 40
12.0
 10
2.149088541666667
 20
-0.8621893988715277
 30
0.0
 10
2.145528157552083
 20
-0.8621893988715277
 30
0.0
 10
2.141893174913194
 20
-0.862392849392361
 30
0.0
 10
2.138170030381944
 20
-0.8627726236979166
 30
0.0
 10
2.134446885850694
 20
-0.8631659613715277
 30
0.0
 10
2.131056043836805
 20
-0.8639119466145833
 30
0.0
 10
2.128004286024305
 20
-0.8650241427951388
 30
0.0
 10
2.124945746527778
 20
-0.8661363389756944
 30
0.0
 10
2.122443305121528
 20
-0.8676961263020833
 30
0.0
 10
2.120503743489583
 20
-0.86968994140625
 30
0.0
 10
2.118557400173611
 20
-0.8716973198784722
 30
0.0
 10
2.117587619357639
 20
-0.8742472330729166
 30
0.0
 10
2.117587619357639
 20
-0.8773668077256944
 30
0.0
 10
2.117587619357639
 20
-0.881924099392361
 30
0.0
 10
2.119113498263889
 20
-0.88519287109375
 30
0.0
 10
2.122172037760417
 20
-0.8872002495659722
 30
0.0
 10
2.125223795572917
 20
-0.8891940646701388
 30
0.0
 10
2.129360622829861
 20
-0.89019775390625
 30
0.0
 10
2.134589301215278
 20
-0.89019775390625
 30
0.0
 10
2.138692220052083
 20
-0.89019775390625
 30
0.0
 10
2.142198350694444
 20
-0.8895060221354166
 30
0.0
 10
2.145087348090278
 20
-0.8881089952256944
 30
0.0
 10
2.147976345486111
 20
-0.8867255316840277
 30
0.0
 10
2.150309244791667
 20
-0.8849216037326388
 30
0.0
 10
2.152086046006944
 20
-0.8826972113715277
 30
0.0
 10
2.153862847222222
 20
-0.8804728190104166
 30
0.0
 10
2.155137803819444
 20
-0.8780042860243055
 30
0.0
 10
2.155917697482639
 20
-0.8752780490451388
 30
0.0
 10
2.156697591145833
 20
-0.8725518120659722
 30
0.0
 10
2.157084147135417
 20
-0.8698662651909722
 30
0.0
 10
2.157084147135417
 20
-0.8671942816840277
 30
0.0
 10
2.157084147135417
 20
-0.8671942816840277
 30
0.0
 10
2.157084147135417
 20
-0.8621893988715277
 30
0.0
 10
2.157084147135417
 20
-0.8621893988715277
 30
0.0
 10
2.157084147135417
 20
-0.8621893988715277
 30
0.0
 10
2.149088541666667
 20
-0.8621893988715277
 30
0.0
 10
2.149088541666667
 20
-0.8621893988715277
 30
0.0
  0
SPLINE
  5
6F
330
45
100
AcDbEntity
  8
Layer 1
 62
     1
370
    18
100
AcDbSpline
210
0.0
220
0.0
230
1.0
 70
    11
 71
     3
 72
   119
 73
   115
 74
     0
 42
0.0000000001
 43
0.0000000001
 40
0.0
 40
0.0
 40
0.0
 40
0.0
 40
1.0
 40
1.0
 40
1.0
 40
2.0
 40
2.0
 40
2.0
 40
3.0
 40
3.0
 40
3.0
 40
4.0
 40
4.0
 40
4.0
 40
5.0
 40
5.0
 40
5.0
 40
6.0
 40
6.0
 40
6.0
 40
7.0
 40
7.0
 40
7.0
 40
8.0
 40
8.0
 40
8.0
 40
9.0
 40
9.0
 40
9.0
 40
10.0
 40
10.0
 40
10.0
 40
11.0
 40
11.0
 40
11.0
 40
12.0
 40
12.0
 40
12.0
 40
13.0
 40
13.0
 40
13.0
 40
14.0
 40
14.0
 40
14.0
 40
15.0
 40
15.0
 40
15.0
 40
16.0
 40
16.0
 40
16.0
 40
17.0
 40
17.0
 40
17.0
 40
18.0
 40
18.0
 40
18.0
 40
19.0
 40
19.0
 40
19.0
 40
20.0
 40
20.0
 40
20.0
 40
21.0
 40
21.0
 40
21.0
 40
22.0
 40
22.0
 40
22.0
 40
23.0
 40
23.0
 40
23.0
 40
24.0
 40
24.0
 40
24.0
 40
25.0
 40
25.0
 40
25.0
 40
26.0
 40
26.0
 40
26.0
 40
27.0
 40
27.0
 40
27.0
 40
28.0
 40
28.0
 40
28.0
 40
29.0
 40
29.0
 40
29.0
 40
30.0
 40
30.0
 40
30.0
 40
31.0
 40
31.0
 40
31.0
 40
32.0
 40
32.0
 40
32.0
 40
33.0
 40
33.0
 40
33.0
 40
34.0
 40
34.0
 40
34.0
 40
35.0
 40
35.0
 40
35.0
 40
36.0
 40
36.0
 40
36.0
 40
37.0
 40
37.0
 40
37.0
 40
38.0
 40
38.0
 40
38.0
 40
38.0
 10
2.192911783854167
 20
-0.8211873372395833
 30
0.0
 10
2.192911783854167
 20
-0.8211873372395833
 30
0.0
 10
2.206922743055555
 20
-0.8211873372395833
 30
0.0
 10
2.206922743055555
 20
-0.8211873372395833
 30
0.0
 10
2.206922743055555
 20
-0.8211873372395833
 30
0.0
 10
2.206922743055555
 20
-0.8335300021701388
 30
0.0
 10
2.206922743055555
 20
-0.8335300021701388
 30
0.0
 10
2.206922743055555
 20
-0.8335300021701388
 30
0.0
 10
2.207261827256944
 20
-0.8335300021701388
 30
0.0
 10
2.207261827256944
 20
-0.8335300021701388
 30
0.0
 10
2.207587348090278
 20
-0.8324178059895833
 30
0.0
 10
2.208455403645833
 20
-0.831020779079861
 30
0.0
 10
2.2098388671875
 20
-0.8293660481770833
 30
0.0
 10
2.211222330729167
 20
-0.82769775390625
 30
0.0
 10
2.2130126953125
 20
-0.82611083984375
 30
0.0
 10
2.215169270833333
 20
-0.8246053059895833
 30
0.0
 10
2.217339409722222
 20
-0.8231133355034722
 30
0.0
 10
2.219889322916667
 20
-0.82183837890625
 30
0.0
 10
2.222832573784722
 20
-0.8207804361979166
 30
0.0
 10
2.225775824652778
 20
-0.8197224934895833
 30
0.0
 10
2.229031032986111
 20
-0.8191935221354166
 30
0.0
 10
2.232584635416667
 20
-0.8191935221354166
 30
0.0
 10
2.238471137152778
 20
-0.8191935221354166
 30
0.0
 10
2.243421766493055
 20
-0.8204142252604166
 30
0.0
 10
2.247422960069444
 20
-0.8228556315104166
 30
0.0
 10
2.251424153645833
 20
-0.8253106011284722
 30
0.0
 10
2.254692925347222
 20
-0.8289727105034722
 30
0.0
 10
2.257256401909722
 20
-0.8338555230034722
 30
0.0
 10
2.259806315104167
 20
-0.8289727105034722
 30
0.0
 10
2.263414171006944
 20
-0.8253106011284722
 30
0.0
 10
2.268079969618055
 20
-0.8228556315104166
 30
0.0
 10
2.272745768229167
 20
-0.8204142252604166
 30
0.0
 10
2.2774658203125
 20
-0.8191935221354166
 30
0.0
 10
2.282253689236111
 20
-0.8191935221354166
 30
0.0
 10
2.288370768229167
 20
-0.8191935221354166
 30
0.0
 10
2.293362087673611
 20
-0.8201972113715277
 30
0.0
 10
2.297254774305555
 20
-0.8221910264756944
 30
0.0
 10
2.3011474609375
 20
-0.8241984049479166
 30
0.0
 10
2.304185655381944
 20
-0.8268296983506944
 30
0.0
 10
2.306410047743055
 20
-0.8301120334201388
 30
0.0
 10
2.308634440104167
 20
-0.8333943684895833
 30
0.0
 10
2.310167100694444
 20
-0.8371107313368055
 30
0.0
 10
2.310994466145833
 20
-0.841274685329861
 30
0.0
 10
2.311835394965278
 20
-0.8454386393229166
 30
0.0
 10
2.312255859375
 20
-0.8497517903645833
 30
0.0
 10
2.312255859375
 20
-0.8542005750868055
 30
0.0
 10
2.312255859375
 20
-0.8542005750868055
 30
0.0
 10
2.312255859375
 20
-0.9001939561631944
 30
0.0
 10
2.312255859375
 20
-0.9001939561631944
 30
0.0
 10
2.312255859375
 20
-0.9001939561631944
 30
0.0
 10
2.297254774305555
 20
-0.9001939561631944
 30
0.0
 10
2.297254774305555
 20
-0.9001939561631944
 30
0.0
 10
2.297254774305555
 20
-0.9001939561631944
 30
0.0
 10
2.297254774305555
 20
-0.8561943901909722
 30
0.0
 10
2.297254774305555
 20
-0.8561943901909722
 30
0.0
 10
2.297254774305555
 20
-0.8531968858506944
 30
0.0
 10
2.297051323784722
 20
-0.850307888454861
 30
0.0
 10
2.296671549479167
 20
-0.8475273980034722
 30
0.0
 10
2.296278211805555
 20
-0.8447469075520833
 30
0.0
 10
2.295477973090278
 20
-0.8423055013020833
 30
0.0
 10
2.294257269965278
 20
-0.8401896158854166
 30
0.0
 10
2.293036566840278
 20
-0.8380872938368055
 30
0.0
 10
2.291300455729167
 20
-0.836391872829861
 30
0.0
 10
2.289089626736111
 20
-0.8351169162326388
 30
0.0
 10
2.286865234375
 20
-0.833828396267361
 30
0.0
 10
2.283921983506944
 20
-0.83319091796875
 30
0.0
 10
2.280259874131944
 20
-0.83319091796875
 30
0.0
 10
2.273030598958333
 20
-0.83319091796875
 30
0.0
 10
2.267862955729167
 20
-0.835415310329861
 30
0.0
 10
2.264743381076389
 20
-0.8398640950520833
 30
0.0
 10
2.261650933159722
 20
-0.84429931640625
 30
0.0
 10
2.260077582465278
 20
-0.8500230577256944
 30
0.0
 10
2.260077582465278
 20
-0.857021755642361
 30
0.0
 10
2.260077582465278
 20
-0.857021755642361
 30
0.0
 10
2.260077582465278
 20
-0.9001939561631944
 30
0.0
 10
2.260077582465278
 20
-0.9001939561631944
 30
0.0
 10
2.260077582465278
 20
-0.9001939561631944
 30
0.0
 10
2.245076497395833
 20
-0.9001939561631944
 30
0.0
 10
2.245076497395833
 20
-0.9001939561631944
 30
0.0
 10
2.245076497395833
 20
-0.9001939561631944
 30
0.0
 10
2.245076497395833
 20
-0.8588663736979166
 30
0.0
 10
2.245076497395833
 20
-0.8588663736979166
 30
0.0
 10
2.245076497395833
 20
-0.8550821940104166
 30
0.0
 10
2.244886610243055
 20
-0.8516370985243055
 30
0.0
 10
2.2445068359375
 20
-0.8485310872395833
 30
0.0
 10
2.244113498263889
 20
-0.8454115125868055
 30
0.0
 10
2.243340386284722
 20
-0.8427259657118055
 30
0.0
 10
2.242173936631944
 20
-0.8404473198784722
 30
0.0
 10
2.241007486979167
 20
-0.8381686740451388
 30
0.0
 10
2.239339192708333
 20
-0.836391872829861
 30
0.0
 10
2.237169053819444
 20
-0.8351169162326388
 30
0.0
 10
2.235012478298611
 20
-0.833828396267361
 30
0.0
 10
2.232082790798611
 20
-0.83319091796875
 30
0.0
 10
2.228420681423611
 20
-0.83319091796875
 30
0.0
 10
2.225762261284722
 20
-0.83319091796875
 30
0.0
 10
2.223171657986111
 20
-0.8337198893229166
 30
0.0
 10
2.220662434895833
 20
-0.83477783203125
 30
0.0
 10
2.218166775173611
 20
-0.8358357747395833
 30
0.0
 10
2.215969509548611
 20
-0.8374226888020833
 30
0.0
 10
2.214084201388889
 20
-0.8395250108506944
 30
0.0
 10
2.212198893229167
 20
-0.841640896267361
 30
0.0
 10
2.210693359375
 20
-0.8443400065104166
 30
0.0
 10
2.2095947265625
 20
-0.8476087782118055
 30
0.0
 10
2.208482530381944
 20
-0.85089111328125
 30
0.0
 10
2.207912868923611
 20
-0.8547566731770833
 30
0.0
 10
2.207912868923611
 20
-0.85919189453125
 30
0.0
 10
2.207912868923611
 20
-0.85919189453125
 30
0.0
 10
2.207912868923611
 20
-0.9001939561631944
 30
0.0
 10
2.207912868923611
 20
-0.9001939561631944
 30
0.0
 10
2.207912868923611
 20
-0.9001939561631944
 30
0.0
 10
2.192911783854167
 20
-0.9001939561631944
 30
0.0
 10
2.192911783854167
 20
-0.9001939561631944
 30
0.0
 10
2.192911783854167
 20
-0.9001939561631944
 30
0.0
 10
2.192911783854167
 20
-0.8211873372395833
 30
0.0
 10
2.192911783854167
 20
-0.8211873372395833
 30
0.0
  0
SPLINE
  5
70
330
45
100
AcDbEntity
  8
Layer 1
 62
     1
370
    18
100
AcDbSpline
210
0.0
220
0.0
230
1.0
 70
    11
 71
     3
 72
    71
 73
    67
 74
     0
 42
0.0000000001
 43
0.0000000001
 40
0.0
 40
0.0
 40
0.0
 40
0.0
 40
1.0
 40
1.0
 40
1.0
 40
2.0
 40
2.0
 40
2.0
 40
3.0
 40
3.0
 40
3.0
 40
4.0
 40
4.0
 40
4.0
 40
5.0
 40
5.0
 40
5.0
 40
6.0
 40
6.0
 40
6.0
 40
7.0
 40
7.0
 40
7.0
 40
8.0
 40
8.0
 40
8.0
 40
9.0
 40
9.0
 40
9.0
 40
10.0
 40
10.0
 40
10.0
 40
11.0
 40
11.0
 40
11.0
 40
12.0
 40
12.0
 40
12.0
 40
13.0
 40
13.0
 40
13.0
 40
14.0
 40
14.0
 40
14.0
 40
15.0
 40
15.0
 40
15.0
 40
16.0
 40
16.0
 40
16.0
 40
17.0
 40
17.0
 40
17.0
 40
18.0
 40
18.0
 40
18.0
 40
19.0
 40
19.0
 40
19.0
 40
20.0
 40
20.0
 40
20.0
 40
21.0
 40
21.0
 40
21.0
 40
22.0
 40
22.0
 40
22.0
 40
22.0
 10
2.346245659722222
 20
-0.8661905924479166
 30
0.0
 10
2.346245659722222
 20
-0.8696356879340277
 30
0.0
 10
2.346991644965278
 20
-0.8727823893229166
 30
0.0
 10
2.348497178819444
 20
-0.8756171332465277
 30
0.0
 10
2.350002712673611
 20
-0.8784383138020833
 30
0.0
 10
2.351969401041667
 20
-0.8808661566840277
 30
0.0
 10
2.354424370659722
 20
-0.8828599717881944
 30
0.0
 10
2.356865776909722
 20
-0.8848673502604166
 30
0.0
 10
2.359686957465278
 20
-0.88641357421875
 30
0.0
 10
2.3629150390625
 20
-0.8875257703993055
 30
0.0
 10
2.366143120659722
 20
-0.888637966579861
 30
0.0
 10
2.369466145833333
 20
-0.8891940646701388
 30
0.0
 10
2.372911241319444
 20
-0.8891940646701388
 30
0.0
 10
2.377590603298611
 20
-0.8891940646701388
 30
0.0
 10
2.381632486979167
 20
-0.8881089952256944
 30
0.0
 10
2.385077582465278
 20
-0.8859388563368055
 30
0.0
 10
2.388522677951389
 20
-0.8837822808159722
 30
0.0
 10
2.391696506076389
 20
-0.88092041015625
 30
0.0
 10
2.394571940104167
 20
-0.8773668077256944
 30
0.0
 10
2.394571940104167
 20
-0.8773668077256944
 30
0.0
 10
2.405910915798611
 20
-0.8860337999131944
 30
0.0
 10
2.405910915798611
 20
-0.8860337999131944
 30
0.0
 10
2.3975830078125
 20
-0.8968031141493055
 30
0.0
 10
2.385918511284722
 20
-0.902187771267361
 30
0.0
 10
2.370917426215278
 20
-0.902187771267361
 30
0.0
 10
2.364691840277778
 20
-0.902187771267361
 30
0.0
 10
2.359049479166667
 20
-0.9011433919270833
 30
0.0
 10
2.353990342881944
 20
-0.8990275065104166
 30
0.0
 10
2.348944769965278
 20
-0.89691162109375
 30
0.0
 10
2.344658745659722
 20
-0.8939954969618055
 30
0.0
 10
2.341159396701389
 20
-0.8902791341145833
 30
0.0
 10
2.337660047743055
 20
-0.8865492078993055
 30
0.0
 10
2.334974500868055
 20
-0.882168240017361
 30
0.0
 10
2.333075629340278
 20
-0.8771091037326388
 30
0.0
 10
2.331190321180555
 20
-0.8720499674479166
 30
0.0
 10
2.330254448784722
 20
-0.8665839301215277
 30
0.0
 10
2.330254448784722
 20
-0.8606974283854166
 30
0.0
 10
2.330254448784722
 20
-0.8548109266493055
 30
0.0
 10
2.331271701388889
 20
-0.849331325954861
 30
0.0
 10
2.333333333333333
 20
-0.8442721896701388
 30
0.0
 10
2.335381401909722
 20
-0.8392266167534722
 30
0.0
 10
2.338216145833333
 20
-0.8348320855034722
 30
0.0
 10
2.341837565104167
 20
-0.83111572265625
 30
0.0
 10
2.345445421006944
 20
-0.8273857964409722
 30
0.0
 10
2.349745008680555
 20
-0.8244696723090277
 30
0.0
 10
2.354749891493055
 20
-0.8223673502604166
 30
0.0
 10
2.3597412109375
 20
-0.82025146484375
 30
0.0
 10
2.365193684895833
 20
-0.8191935221354166
 30
0.0
 10
2.371080186631944
 20
-0.8191935221354166
 30
0.0
 10
2.378078884548611
 20
-0.8191935221354166
 30
0.0
 10
2.383992513020833
 20
-0.8204142252604166
 30
0.0
 10
2.388834635416667
 20
-0.8228556315104166
 30
0.0
 10
2.393663194444444
 20
-0.8253106011284722
 30
0.0
 10
2.397637261284722
 20
-0.8284979926215277
 30
0.0
 10
2.4007568359375
 20
-0.8324449327256944
 30
0.0
 10
2.403849283854167
 20
-0.836391872829861
 30
0.0
 10
2.406100802951389
 20
-0.8408406575520833
 30
0.0
 10
2.407497829861111
 20
-0.8457777235243055
 30
0.0
 10
2.408894856770833
 20
-0.8507283528645833
 30
0.0
 10
2.409573025173611
 20
-0.8557467990451388
 30
0.0
 10
2.409573025173611
 20
-0.8608601888020833
 30
0.0
 10
2.409573025173611
 20
-0.8608601888020833
 30
0.0
 10
2.409573025173611
 20
-0.8661905924479166
 30
0.0
 10
2.409573025173611
 20
-0.8661905924479166
 30
0.0
 10
2.409573025173611
 20
-0.8661905924479166
 30
0.0
 10
2.346245659722222
 20
-0.8661905924479166
 30
0.0
 10
2.346245659722222
 20
-0.8661905924479166
 30
0.0
  0
SPLINE
  5
71
330
45
100
AcDbEntity
  8
Layer 1
 62
     1
370
    18
100
AcDbSpline
210
0.0
220
0.0
230
1.0
 70
    11
 71
     3
 72
    32
 73
    28
 74
     0
 42
0.0000000001
 43
0.0000000001
 40
0.0
 40
0.0
 40
0.0
 40
0.0
 40
1.0
 40
1.0
 40
1.0
 40
2.0
 40
2.0
 40
2.0
 40
3.0
 40
3.0
 40
3.0
 40
4.0
 40
4.0
 40
4.0
 40
5.0
 40
5.0
 40
5.0
 40
6.0
 40
6.0
 40
6.0
 40
7.0
 40
7.0
 40
7.0
 40
8.0
 40
8.0
 40
8.0
 40
9.0
 40
9.0
 40
9.0
 40
9.0
 10
2.393581814236111
 20
-0.8542005750868055
 30
0.0
 10
2.393459743923611
 20
-0.8508639865451388
 30
0.0
 10
2.3929443359375
 20
-0.8478122287326388
 30
0.0
 10
2.391994900173611
 20
-0.84503173828125
 30
0.0
 10
2.391045464409722
 20
-0.842251247829861
 30
0.0
 10
2.389634874131944
 20
-0.8398369683159722
 30
0.0
 10
2.387749565972222
 20
-0.8377753363715277
 30
0.0
 10
2.3858642578125
 20
-0.8357272677951388
 30
0.0
 10
2.383504231770833
 20
-0.8341132269965277
 30
0.0
 10
2.380655924479167
 20
-0.83294677734375
 30
0.0
 10
2.377834743923611
 20
-0.8317803276909722
 30
0.0
 10
2.374525282118055
 20
-0.8311971028645833
 30
0.0
 10
2.370754665798611
 20
-0.8311971028645833
 30
0.0
 10
2.367078993055555
 20
-0.8311971028645833
 30
0.0
 10
2.363728841145833
 20
-0.8318888346354166
 30
0.0
 10
2.360663519965278
 20
-0.8332722981770833
 30
0.0
 10
2.357598198784722
 20
-0.8346693250868055
 30
0.0
 10
2.355021158854167
 20
-0.8364732530381944
 30
0.0
 10
2.3529052734375
 20
-0.8386976453993055
 30
0.0
 10
2.350802951388889
 20
-0.8409220377604166
 30
0.0
 10
2.349161783854167
 20
-0.8433905707465277
 30
0.0
 10
2.347995334201389
 20
-0.8461168077256944
 30
0.0
 10
2.346828884548611
 20
-0.8488294813368055
 30
0.0
 10
2.346245659722222
 20
-0.851528591579861
 30
0.0
 10
2.346245659722222
 20
-0.8542005750868055
 30
0.0
 10
2.346245659722222
 20
-0.8542005750868055
 30
0.0
 10
2.393581814236111
 20
-0.8542005750868055
 30
0.0
 10
2.393581814236111
 20
-0.8542005750868055
 30
0.0
  0
SPLINE
  5
72
330
45
100
AcDbEntity
  8
Layer 1
 62
     1
370
    18
100
AcDbSpline
210
0.0
220
0.0
230
1.0
 70
    11
 71
     3
 72
    29
 73
    25
 74
     0
 42
0.0000000001
 43
0.0000000001
 40
0.0
 40
0.0
 40
0.0
 40
0.0
 40
1.0
 40
1.0
 40
1.0
 40
2.0
 40
2.0
 40
2.0
 40
3.0
 40
3.0
 40
3.0
 40
4.0
 40
4.0
 40
4.0
 40
5.0
 40
5.0
 40
5.0
 40
6.0
 40
6.0
 40
6.0
 40
7.0
 40
7.0
 40
7.0
 40
8.0
 40
8.0
 40
8.0
 40
8.0
 10
2.471584743923611
 20
-0.7928670247395833
 30
0.0
 10
2.471584743923611
 20
-0.78985595703125
 30
0.0
 10
2.472669813368055
 20
-0.7872789171006944
 30
0.0
 10
2.474839952256944
 20
-0.7851087782118055
 30
0.0
 10
2.477010091145833
 20
-0.7829386393229166
 30
0.0
 10
2.479587131076389
 20
-0.7818671332465277
 30
0.0
 10
2.482584635416667
 20
-0.7818671332465277
 30
0.0
 10
2.485582139756944
 20
-0.7818671332465277
 30
0.0
 10
2.4881591796875
 20
-0.7829386393229166
 30
0.0
 10
2.490329318576389
 20
-0.7851087782118055
 30
0.0
 10
2.492499457465278
 20
-0.7872789171006944
 30
0.0
 10
2.493584526909722
 20
-0.78985595703125
 30
0.0
 10
2.493584526909722
 20
-0.7928670247395833
 30
0.0
 10
2.493584526909722
 20
-0.795864529079861
 30
0.0
 10
2.492499457465278
 20
-0.7984415690104166
 30
0.0
 10
2.490329318576389
 20
-0.8006117078993055
 30
0.0
 10
2.4881591796875
 20
-0.8027818467881944
 30
0.0
 10
2.485582139756944
 20
-0.8038669162326388
 30
0.0
 10
2.482584635416667
 20
-0.8038669162326388
 30
0.0
 10
2.479587131076389
 20
-0.8038669162326388
 30
0.0
 10
2.477010091145833
 20
-0.8027818467881944
 30
0.0
 10
2.474839952256944
 20
-0.8006117078993055
 30
0.0
 10
2.472669813368055
 20
-0.7984415690104166
 30
0.0
 10
2.471584743923611
 20
-0.795864529079861
 30
0.0
 10
2.471584743923611
 20
-0.7928670247395833
 30
0.0
  0
POLYLINE
  5
73
330
45
100
AcDbEntity
  8
Layer 1
 62
     1
370
    18
100
AcDb2dPolyline
 66
     1
 10
0.0
 20
0.0
 30
0.0
  0
VERTEX
  5
74
330
73
100
AcDbEntity
  8
Layer 1
 62
     1
370
    18
100
AcDbVertex
100
AcDb2dVertex
 10
2.475084092881944
 20
-0.8211873372395833
 30
0.0
  0
VERTEX
  5
75
330
73
100
AcDbEntity
  8
Layer 1
 62
     1
370
    18
100
AcDbVertex
100
AcDb2dVertex
 10
2.490085177951389
 20
-0.8211873372395833
 30
0.0
  0
VERTEX
  5
76
330
73
100
AcDbEntity
  8
Layer 1
 62
     1
370
    18
100
AcDbVertex
100
AcDb2dVertex
 10
2.490085177951389
 20
-0.9001939561631944
 30
0.0
  0
VERTEX
  5
77
330
73
100
AcDbEntity
  8
Layer 1
 62
     1
370
    18
100
AcDbVertex
100
AcDb2dVertex
 10
2.475084092881944
 20
-0.9001939561631944
 30
0.0
  0
VERTEX
  5
78
330
73
100
AcDbEntity
  8
Layer 1
 62
     1
370
    18
100
AcDbVertex
100
AcDb2dVertex
 10
2.475084092881944
 20
-0.8211873372395833
 30
0.0
  0
SEQEND
  5
79
330
73
100
AcDbEntity
  8
Layer 1
370
    18
  0
SPLINE
  5
7A
330
45
100
AcDbEntity
  8
Layer 1
 62
     1
370
    18
100
AcDbSpline
210
0.0
220
0.0
230
1.0
 70
    11
 71
     3
 72
   125
 73
   121
 74
     0
 42
0.0000000001
 43
0.0000000001
 40
0.0
 40
0.0
 40
0.0
 40
0.0
 40
1.0
 40
1.0
 40
1.0
 40
2.0
 40
2.0
 40
2.0
 40
3.0
 40
3.0
 40
3.0
 40
4.0
 40
4.0
 40
4.0
 40
5.0
 40
5.0
 40
5.0
 40
6.0
 40
6.0
 40
6.0
 40
7.0
 40
7.0
 40
7.0
 40
8.0
 40
8.0
 40
8.0
 40
9.0
 40
9.0
 40
9.0
 40
10.0
 40
10.0
 40
10.0
 40
11.0
 40
11.0
 40
11.0
 40
12.0
 40
12.0
 40
12.0
 40
13.0
 40
13.0
 40
13.0
 40
14.0
 40
14.0
 40
14.0
 40
15.0
 40
15.0
 40
15.0
 40
16.0
 40
16.0
 40
16.0
 40
17.0
 40
17.0
 40
17.0
 40
18.0
 40
18.0
 40
18.0
 40
19.0
 40
19.0
 40
19.0
 40
20.0
 40
20.0
 40
20.0
 40
21.0
 40
21.0
 40
21.0
 40
22.0
 40
22.0
 40
22.0
 40
23.0
 40
23.0
 40
23.0
 40
24.0
 40
24.0
 40
24.0
 40
25.0
 40
25.0
 40
25.0
 40
26.0
 40
26.0
 40
26.0
 40
27.0
 40
27.0
 40
27.0
 40
28.0
 40
28.0
 40
28.0
 40
29.0
 40
29.0
 40
29.0
 40
30.0
 40
30.0
 40
30.0
 40
31.0
 40
31.0
 40
31.0
 40
32.0
 40
32.0
 40
32.0
 40
33.0
 40
33.0
 40
33.0
 40
34.0
 40
34.0
 40
34.0
 40
35.0
 40
35.0
 40
35.0
 40
36.0
 40
36.0
 40
36.0
 40
37.0
 40
37.0
 40
37.0
 40
38.0
 40
38.0
 40
38.0
 40
39.0
 40
39.0
 40
39.0
 40
40.0
 40
40.0
 40
40.0
 40
40.0
 10
2.555914984809028
 20
-0.841030544704861
 30
0.0
 10
2.554124620225694
 20
-0.83880615234375
 30
0.0
 10
2.551927354600694
 20
-0.8369479709201388
 30
0.0
 10
2.549323187934028
 20
-0.8354424370659722
 30
0.0
 10
2.546719021267361
 20
-0.833950466579861
 30
0.0
 10
2.54351806640625
 20
-0.83319091796875
 30
0.0
 10
2.539747450086805
 20
-0.83319091796875
 30
0.0
 10
2.53619384765625
 20
-0.83319091796875
 30
0.0
 10
2.533101399739583
 20
-0.833950466579861
 30
0.0
 10
2.530497233072917
 20
-0.8354424370659722
 30
0.0
 10
2.52789306640625
 20
-0.8369479709201388
 30
0.0
 10
2.526590983072917
 20
-0.8391452365451388
 30
0.0
 10
2.526590983072917
 20
-0.8420206705729166
 30
0.0
 10
2.526590983072917
 20
-0.8443671332465277
 30
0.0
 10
2.527323404947917
 20
-0.84625244140625
 30
0.0
 10
2.528842502170139
 20
-0.8476901584201388
 30
0.0
 10
2.53033447265625
 20
-0.8491414388020833
 30
0.0
 10
2.532097710503472
 20
-0.850307888454861
 30
0.0
 10
2.534159342447917
 20
-0.8511895073784722
 30
0.0
 10
2.536220974392361
 20
-0.8520846896701388
 30
0.0
 10
2.538418240017361
 20
-0.852749294704861
 30
0.0
 10
2.540751139322917
 20
-0.8531968858506944
 30
0.0
 10
2.543084038628472
 20
-0.8536444769965277
 30
0.0
 10
2.545091417100694
 20
-0.8540242513020833
 30
0.0
 10
2.546746148003472
 20
-0.8543633355034722
 30
0.0
 10
2.549974229600694
 20
-0.8551364474826388
 30
0.0
 10
2.552985297309028
 20
-0.8560858832465277
 30
0.0
 10
2.555833604600694
 20
-0.8571980794270833
 30
0.0
 10
2.55865478515625
 20
-0.8583102756076388
 30
0.0
 10
2.56109619140625
 20
-0.8597479926215277
 30
0.0
 10
2.563157823350694
 20
-0.8615247938368055
 30
0.0
 10
2.565219455295139
 20
-0.8633015950520833
 30
0.0
 10
2.566819932725694
 20
-0.8654717339409722
 30
0.0
 10
2.567986382378472
 20
-0.8680216471354166
 30
0.0
 10
2.56915283203125
 20
-0.8705851236979166
 30
0.0
 10
2.569749620225694
 20
-0.8736911349826388
 30
0.0
 10
2.569749620225694
 20
-0.8773668077256944
 30
0.0
 10
2.569749620225694
 20
-0.881802029079861
 30
0.0
 10
2.568800184461805
 20
-0.8856133355034722
 30
0.0
 10
2.566901312934028
 20
-0.8887736002604166
 30
0.0
 10
2.565029568142361
 20
-0.8919474283854166
 30
0.0
 10
2.562588161892361
 20
-0.8945244683159722
 30
0.0
 10
2.559577094184028
 20
-0.8965318467881944
 30
0.0
 10
2.556593153211805
 20
-0.898525661892361
 30
0.0
 10
2.553175184461805
 20
-0.8999769422743055
 30
0.0
 10
2.549323187934028
 20
-0.9008585611979166
 30
0.0
 10
2.545498318142361
 20
-0.9017537434895833
 30
0.0
 10
2.541646321614583
 20
-0.902187771267361
 30
0.0
 10
2.537740071614583
 20
-0.902187771267361
 30
0.0
 10
2.531202528211805
 20
-0.902187771267361
 30
0.0
 10
2.52545166015625
 20
-0.9011976453993055
 30
0.0
 10
2.520494249131944
 20
-0.8991902669270833
 30
0.0
 10
2.515557183159722
 20
-0.8971964518229166
 30
0.0
 10
2.511135525173611
 20
-0.893520779079861
 30
0.0
 10
2.507256401909722
 20
-0.8881903754340277
 30
0.0
 10
2.507256401909722
 20
-0.8881903754340277
 30
0.0
 10
2.518581814236111
 20
-0.8788587782118055
 30
0.0
 10
2.518581814236111
 20
-0.8788587782118055
 30
0.0
 10
2.521023220486111
 20
-0.8813001844618055
 30
0.0
 10
2.52374267578125
 20
-0.8834703233506944
 30
0.0
 10
2.526753743489583
 20
-0.8853556315104166
 30
0.0
 10
2.529737684461805
 20
-0.8872545030381944
 30
0.0
 10
2.533426920572917
 20
-0.8881903754340277
 30
0.0
 10
2.537740071614583
 20
-0.8881903754340277
 30
0.0
 10
2.539638943142361
 20
-0.8881903754340277
 30
0.0
 10
2.54156494140625
 20
-0.88800048828125
 30
0.0
 10
2.543490939670139
 20
-0.8876071506076388
 30
0.0
 10
2.545444064670139
 20
-0.8872273763020833
 30
0.0
 10
2.547153049045139
 20
-0.8866170247395833
 30
0.0
 10
2.548672146267361
 20
-0.8857760959201388
 30
0.0
 10
2.550164116753472
 20
-0.88494873046875
 30
0.0
 10
2.551384819878472
 20
-0.8838907877604166
 30
0.0
 10
2.552334255642361
 20
-0.8826158311631944
 30
0.0
 10
2.55328369140625
 20
-0.8813408745659722
 30
0.0
 10
2.553744845920139
 20
-0.8798624674479166
 30
0.0
 10
2.553744845920139
 20
-0.8781941731770833
 30
0.0
 10
2.553744845920139
 20
-0.8759697808159722
 30
0.0
 10
2.55303955078125
 20
-0.8741387261284722
 30
0.0
 10
2.551656087239583
 20
-0.8726874457465277
 30
0.0
 10
2.550272623697917
 20
-0.8712497287326388
 30
0.0
 10
2.548617892795139
 20
-0.8701104058159722
 30
0.0
 10
2.546664767795139
 20
-0.8692830403645833
 30
0.0
 10
2.544711642795139
 20
-0.8684421115451388
 30
0.0
 10
2.542677137586805
 20
-0.8677775065104166
 30
0.0
 10
2.540506998697917
 20
-0.867275661892361
 30
0.0
 10
2.538336859809028
 20
-0.8667738172743055
 30
0.0
 10
2.536410861545139
 20
-0.8663669162326388
 30
0.0
 10
2.534756130642361
 20
-0.86602783203125
 30
0.0
 10
2.531528049045139
 20
-0.8652547200520833
 30
0.0
 10
2.528462727864583
 20
-0.8643595377604166
 30
0.0
 10
2.525587293836805
 20
-0.8633558485243055
 30
0.0
 10
2.522684733072917
 20
-0.86236572265625
 30
0.0
 10
2.5201416015625
 20
-0.86102294921875
 30
0.0
 10
2.517917209201389
 20
-0.8593546549479166
 30
0.0
 10
2.515692816840278
 20
-0.8576999240451388
 30
0.0
 10
2.513916015625
 20
-0.8555840386284722
 30
0.0
 10
2.512586805555555
 20
-0.8530205620659722
 30
0.0
 10
2.511244032118055
 20
-0.8504706488715277
 30
0.0
 10
2.510592990451389
 20
-0.8473103841145833
 30
0.0
 10
2.510592990451389
 20
-0.8435262044270833
 30
0.0
 10
2.510592990451389
 20
-0.83941650390625
 30
0.0
 10
2.511433919270833
 20
-0.8358357747395833
 30
0.0
 10
2.513170030381944
 20
-0.8327840169270833
 30
0.0
 10
2.514879014756944
 20
-0.8297186957465277
 30
0.0
 10
2.517157660590278
 20
-0.8271959092881944
 30
0.0
 10
2.520005967881944
 20
-0.8251885308159722
 30
0.0
 10
2.522820366753472
 20
-0.8231947157118055
 30
0.0
 10
2.526048448350694
 20
-0.8216891818576388
 30
0.0
 10
2.529656304253472
 20
-0.8206990559895833
 30
0.0
 10
2.53326416015625
 20
-0.8196953667534722
 30
0.0
 10
2.53692626953125
 20
-0.8191935221354166
 30
0.0
 10
2.54058837890625
 20
-0.8191935221354166
 30
0.0
 10
2.545905219184028
 20
-0.8191935221354166
 30
0.0
 10
2.551032172309028
 20
-0.8201972113715277
 30
0.0
 10
2.555914984809028
 20
-0.8221910264756944
 30
0.0
 10
2.560797797309028
 20
-0.8241984049479166
 30
0.0
 10
2.564676920572917
 20
-0.8275214301215277
 30
0.0
 10
2.567579481336805
 20
-0.8321872287326388
 30
0.0
 10
2.567579481336805
 20
-0.8321872287326388
 30
0.0
 10
2.555914984809028
 20
-0.841030544704861
 30
0.0
 10
2.555914984809028
 20
-0.841030544704861
 30
0.0
  0
ENDBLK
  5
48
330
45
100
AcDbEntity
  8
0
100
AcDbBlockEnd
  0
BLOCK
  5
7D
330
7B
100
AcDbEntity
  8
0
100
AcDbBlockBegin
  2
block 3
 70
     0
 71
     0
 10
0.0
 20
0.0
 30
0.0
  3
block 3
  1

  0
POLYLINE
  5
7F
330
7B
100
AcDbEntity
  8
Layer 1
 62
     1
370
    18
100
AcDb2dPolyline
 66
     1
 10
0.0
 20
0.0
 30
0.0
  0
VERTEX
  5
80
330
7F
100
AcDbEntity
  8
Layer 1
 62
     1
370
    18
100
AcDbVertex
100
AcDb2dVertex
 10
1.238559299045139
 20
-2.522013346354167
 30
0.0
  0
VERTEX
  5
81
330
7F
100
AcDbEntity
  8
Layer 1
 62
     1
370
    18
100
AcDbVertex
100
AcDb2dVertex
 10
1.25482177734375
 20
-2.522013346354167
 30
0.0
  0
VERTEX
  5
82
330
7F
100
AcDbEntity
  8
Layer 1
 62
     1
370
    18
100
AcDbVertex
100
AcDb2dVertex
 10
1.25482177734375
 20
-2.626661512586805
 30
0.0
  0
VERTEX
  5
83
330
7F
100
AcDbEntity
  8
Layer 1
 62
     1
370
    18
100
AcDbVertex
100
AcDb2dVertex
 10
1.309855143229167
 20
-2.626661512586805
 30
0.0
  0
VERTEX
  5
84
330
7F
100
AcDbEntity
  8
Layer 1
 62
     1
370
    18
100
AcDbVertex
100
AcDb2dVertex
 10
1.309855143229167
 20
-2.641899956597222
 30
0.0
  0
VERTEX
  5
85
330
7F
100
AcDbEntity
  8
Layer 1
 62
     1
370
    18
100
AcDbVertex
100
AcDb2dVertex
 10
1.238559299045139
 20
-2.641899956597222
 30
0.0
  0
VERTEX
  5
86
330
7F
100
AcDbEntity
  8
Layer 1
 62
     1
370
    18
100
AcDbVertex
100
AcDb2dVertex
 10
1.238559299045139
 20
-2.522013346354167
 30
0.0
  0
SEQEND
  5
87
330
7F
100
AcDbEntity
  8
Layer 1
370
    18
  0
SPLINE
  5
88
330
7B
100
AcDbEntity
  8
Layer 1
 62
     1
370
    18
100
AcDbSpline
210
0.0
220
0.0
230
1.0
 70
    11
 71
     3
 72
    53
 73
    49
 74
     0
 42
0.0000000001
 43
0.0000000001
 40
0.0
 40
0.0
 40
0.0
 40
0.0
 40
1.0
 40
1.0
 40
1.0
 40
2.0
 40
2.0
 40
2.0
 40
3.0
 40
3.0
 40
3.0
 40
4.0
 40
4.0
 40
4.0
 40
5.0
 40
5.0
 40
5.0
 40
6.0
 40
6.0
 40
6.0
 40
7.0
 40
7.0
 40
7.0
 40
8.0
 40
8.0
 40
8.0
 40
9.0
 40
9.0
 40
9.0
 40
10.0
 40
10.0
 40
10.0
 40
11.0
 40
11.0
 40
11.0
 40
12.0
 40
12.0
 40
12.0
 40
13.0
 40
13.0
 40
13.0
 40
14.0
 40
14.0
 40
14.0
 40
15.0
 40
15.0
 40
15.0
 40
16.0
 40
16.0
 40
16.0
 40
16.0
 10
1.318657769097222
 20
-2.601765950520833
 30
0.0
 10
1.318657769097222
 20
-2.595906575520833
 30
0.0
 10
1.31976318359375
 20
-2.590426974826389
 30
0.0
 10
1.32196044921875
 20
-2.585347493489583
 30
0.0
 10
1.324164496527778
 20
-2.58026123046875
 30
0.0
 10
1.327182345920139
 20
-2.5758056640625
 30
0.0
 10
1.331013997395833
 20
-2.571967230902778
 30
0.0
 10
1.334859212239583
 20
-2.568128797743055
 30
0.0
 10
1.339375813802083
 20
-2.565104166666667
 30
0.0
 10
1.344563802083333
 20
-2.562906901041667
 30
0.0
 10
1.349758572048611
 20
-2.560709635416667
 30
0.0
 10
1.3553466796875
 20
-2.559611002604167
 30
0.0
 10
1.361328125
 20
-2.559611002604167
 30
0.0
 10
1.3673095703125
 20
-2.559611002604167
 30
0.0
 10
1.372904459635417
 20
-2.560709635416667
 30
0.0
 10
1.378092447916667
 20
-2.562906901041667
 30
0.0
 10
1.383287217881944
 20
-2.565104166666667
 30
0.0
 10
1.387803819444444
 20
-2.568128797743055
 30
0.0
 10
1.391642252604167
 20
-2.571967230902778
 30
0.0
 10
1.395480685763889
 20
-2.5758056640625
 30
0.0
 10
1.39849853515625
 20
-2.58026123046875
 30
0.0
 10
1.400702582465278
 20
-2.585347493489583
 30
0.0
 10
1.402906629774306
 20
-2.590426974826389
 30
0.0
 10
1.404005262586806
 20
-2.595906575520833
 30
0.0
 10
1.404005262586806
 20
-2.601765950520833
 30
0.0
 10
1.404005262586806
 20
-2.607638888888889
 30
0.0
 10
1.402906629774306
 20
-2.613145616319444
 30
0.0
 10
1.400702582465278
 20
-2.618279351128472
 30
0.0
 10
1.39849853515625
 20
-2.623419867621528
 30
0.0
 10
1.395480685763889
 20
-2.627875434027778
 30
0.0
 10
1.391642252604167
 20
-2.631659613715278
 30
0.0
 10
1.387803819444444
 20
-2.63543701171875
 30
0.0
 10
1.383287217881944
 20
-2.638427734375
 30
0.0
 10
1.378092447916667
 20
-2.640631781684028
 30
0.0
 10
1.372904459635417
 20
-2.642835828993055
 30
0.0
 10
1.3673095703125
 20
-2.643934461805555
 30
0.0
 10
1.361328125
 20
-2.643934461805555
 30
0.0
 10
1.3553466796875
 20
-2.643934461805555
 30
0.0
 10
1.349758572048611
 20
-2.642835828993055
 30
0.0
 10
1.344563802083333
 20
-2.640631781684028
 30
0.0
 10
1.339375813802083
 20
-2.638427734375
 30
0.0
 10
1.334859212239583
 20
-2.63543701171875
 30
0.0
 10
1.331013997395833
 20
-2.631659613715278
 30
0.0
 10
1.327182345920139
 20
-2.627875434027778
 30
0.0
 10
1.324164496527778
 20
-2.623419867621528
 30
0.0
 10
1.32196044921875
 20
-2.618279351128472
 30
0.0
 10
1.31976318359375
 20
-2.613145616319444
 30
0.0
 10
1.318657769097222
 20
-2.607638888888889
 30
0.0
 10
1.318657769097222
 20
-2.601765950520833
 30
0.0
  0
SPLINE
  5
89
330
7B
100
AcDbEntity
  8
Layer 1
 62
     1
370
    18
100
AcDbSpline
210
0.0
220
0.0
230
1.0
 70
    11
 71
     3
 72
    53
 73
    49
 74
     0
 42
0.0000000001
 43
0.0000000001
 40
0.0
 40
0.0
 40
0.0
 40
0.0
 40
1.0
 40
1.0
 40
1.0
 40
2.0
 40
2.0
 40
2.0
 40
3.0
 40
3.0
 40
3.0
 40
4.0
 40
4.0
 40
4.0
 40
5.0
 40
5.0
 40
5.0
 40
6.0
 40
6.0
 40
6.0
 40
7.0
 40
7.0
 40
7.0
 40
8.0
 40
8.0
 40
8.0
 40
9.0
 40
9.0
 40
9.0
 40
10.0
 40
10.0
 40
10.0
 40
11.0
 40
11.0
 40
11.0
 40
12.0
 40
12.0
 40
12.0
 40
13.0
 40
13.0
 40
13.0
 40
14.0
 40
14.0
 40
14.0
 40
15.0
 40
15.0
 40
15.0
 40
16.0
 40
16.0
 40
16.0
 40
16.0
 10
1.334920247395833
 20
-2.601765950520833
 30
0.0
 10
1.334920247395833
 20
-2.6058349609375
 30
0.0
 10
1.335530598958333
 20
-2.609592013888889
 30
0.0
 10
1.336778428819444
 20
-2.613030327690972
 30
0.0
 10
1.338019476996528
 20
-2.616475423177083
 30
0.0
 10
1.339762369791667
 20
-2.619411892361111
 30
0.0
 10
1.342027452256944
 20
-2.621839735243055
 30
0.0
 10
1.344285753038194
 20
-2.624260796440972
 30
0.0
 10
1.3470458984375
 20
-2.626186794704861
 30
0.0
 10
1.350321451822917
 20
-2.627597384982639
 30
0.0
 10
1.353597005208333
 20
-2.629001193576389
 30
0.0
 10
1.357265896267361
 20
-2.629713270399305
 30
0.0
 10
1.361328125
 20
-2.629713270399305
 30
0.0
 10
1.365397135416667
 20
-2.629713270399305
 30
0.0
 10
1.369059244791667
 20
-2.629001193576389
 30
0.0
 10
1.372334798177083
 20
-2.627597384982639
 30
0.0
 10
1.3756103515625
 20
-2.626186794704861
 30
0.0
 10
1.378377278645833
 20
-2.624260796440972
 30
0.0
 10
1.380635579427083
 20
-2.621839735243055
 30
0.0
 10
1.382893880208333
 20
-2.619411892361111
 30
0.0
 10
1.3846435546875
 20
-2.616475423177083
 30
0.0
 10
1.385884602864583
 20
-2.613030327690972
 30
0.0
 10
1.387125651041667
 20
-2.609592013888889
 30
0.0
 10
1.387749565972222
 20
-2.6058349609375
 30
0.0
 10
1.387749565972222
 20
-2.601765950520833
 30
0.0
 10
1.387749565972222
 20
-2.597710503472222
 30
0.0
 10
1.387125651041667
 20
-2.593953450520833
 30
0.0
 10
1.385884602864583
 20
-2.59051513671875
 30
0.0
 10
1.3846435546875
 20
-2.587070041232639
 30
0.0
 10
1.382893880208333
 20
-2.584133572048611
 30
0.0
 10
1.380635579427083
 20
-2.581705729166667
 30
0.0
 10
1.378377278645833
 20
-2.57928466796875
 30
0.0
 10
1.3756103515625
 20
-2.577358669704861
 30
0.0
 10
1.372334798177083
 20
-2.575948079427083
 30
0.0
 10
1.369059244791667
 20
-2.574537489149305
 30
0.0
 10
1.365397135416667
 20
-2.573832194010417
 30
0.0
 10
1.361328125
 20
-2.573832194010417
 30
0.0
 10
1.357265896267361
 20
-2.573832194010417
 30
0.0
 10
1.353597005208333
 20
-2.574537489149305
 30
0.0
 10
1.350321451822917
 20
-2.575948079427083
 30
0.0
 10
1.3470458984375
 20
-2.577358669704861
 30
0.0
 10
1.344285753038194
 20
-2.57928466796875
 30
0.0
 10
1.342027452256944
 20
-2.581705729166667
 30
0.0
 10
1.339762369791667
 20
-2.584133572048611
 30
0.0
 10
1.338019476996528
 20
-2.587070041232639
 30
0.0
 10
1.336778428819444
 20
-2.59051513671875
 30
0.0
 10
1.335530598958333
 20
-2.593953450520833
 30
0.0
 10
1.334920247395833
 20
-2.597710503472222
 30
0.0
 10
1.334920247395833
 20
-2.601765950520833
 30
0.0
  0
SPLINE
  5
8A
330
7B
100
AcDbEntity
  8
Layer 1
 62
     1
370
    18
100
AcDbSpline
210
0.0
220
0.0
230
1.0
 70
    11
 71
     3
 72
    74
 73
    70
 74
     0
 42
0.0000000001
 43
0.0000000001
 40
0.0
 40
0.0
 40
0.0
 40
0.0
 40
1.0
 40
1.0
 40
1.0
 40
2.0
 40
2.0
 40
2.0
 40
3.0
 40
3.0
 40
3.0
 40
4.0
 40
4.0
 40
4.0
 40
5.0
 40
5.0
 40
5.0
 40
6.0
 40
6.0
 40
6.0
 40
7.0
 40
7.0
 40
7.0
 40
8.0
 40
8.0
 40
8.0
 40
9.0
 40
9.0
 40
9.0
 40
10.0
 40
10.0
 40
10.0
 40
11.0
 40
11.0
 40
11.0
 40
12.0
 40
12.0
 40
12.0
 40
13.0
 40
13.0
 40
13.0
 40
14.0
 40
14.0
 40
14.0
 40
15.0
 40
15.0
 40
15.0
 40
16.0
 40
16.0
 40
16.0
 40
17.0
 40
17.0
 40
17.0
 40
18.0
 40
18.0
 40
18.0
 40
19.0
 40
19.0
 40
19.0
 40
20.0
 40
20.0
 40
20.0
 40
21.0
 40
21.0
 40
21.0
 40
22.0
 40
22.0
 40
22.0
 40
23.0
 40
23.0
 40
23.0
 40
23.0
 10
1.423129611545139
 20
-2.561638726128472
 30
0.0
 10
1.423129611545139
 20
-2.561638726128472
 30
0.0
 10
1.438368055555556
 20
-2.561638726128472
 30
0.0
 10
1.438368055555556
 20
-2.561638726128472
 30
0.0
 10
1.438368055555556
 20
-2.561638726128472
 30
0.0
 10
1.438368055555556
 20
-2.574001736111111
 30
0.0
 10
1.438368055555556
 20
-2.574001736111111
 30
0.0
 10
1.438368055555556
 20
-2.574001736111111
 30
0.0
 10
1.438713921440972
 20
-2.574001736111111
 30
0.0
 10
1.438713921440972
 20
-2.574001736111111
 30
0.0
 10
1.440626356336806
 20
-2.569708930121528
 30
0.0
 10
1.443962944878472
 20
-2.566236707899305
 30
0.0
 10
1.448703342013889
 20
-2.563585069444444
 30
0.0
 10
1.453443739149306
 20
-2.560933430989583
 30
0.0
 10
1.458916558159722
 20
-2.559611002604167
 30
0.0
 10
1.465128580729167
 20
-2.559611002604167
 30
0.0
 10
1.468967013888889
 20
-2.559611002604167
 30
0.0
 10
1.472669813368056
 20
-2.560201009114583
 30
0.0
 10
1.476223415798611
 20
-2.561381022135417
 30
0.0
 10
1.479777018229167
 20
-2.562567816840278
 30
0.0
 10
1.482883029513889
 20
-2.564405653211805
 30
0.0
 10
1.48553466796875
 20
-2.566887749565972
 30
0.0
 10
1.488186306423611
 20
-2.569376627604167
 30
0.0
 10
1.490302191840278
 20
-2.572557237413194
 30
0.0
 10
1.49188232421875
 20
-2.576456705729167
 30
0.0
 10
1.493462456597222
 20
-2.580349392361111
 30
0.0
 10
1.494255913628472
 20
-2.584954155815972
 30
0.0
 10
1.494255913628472
 20
-2.590257432725694
 30
0.0
 10
1.494255913628472
 20
-2.590257432725694
 30
0.0
 10
1.494255913628472
 20
-2.641899956597222
 30
0.0
 10
1.494255913628472
 20
-2.641899956597222
 30
0.0
 10
1.494255913628472
 20
-2.641899956597222
 30
0.0
 10
1.479017469618056
 20
-2.641899956597222
 30
0.0
 10
1.479017469618056
 20
-2.641899956597222
 30
0.0
 10
1.479017469618056
 20
-2.641899956597222
 30
0.0
 10
1.479017469618056
 20
-2.594482421875
 30
0.0
 10
1.479017469618056
 20
-2.594482421875
 30
0.0
 10
1.479017469618056
 20
-2.59075927734375
 30
0.0
 10
1.478508843315972
 20
-2.587578667534722
 30
0.0
 10
1.477491590711806
 20
-2.584920247395833
 30
0.0
 10
1.476474338107639
 20
-2.582275390625
 30
0.0
 10
1.475118001302083
 20
-2.580125596788194
 30
0.0
 10
1.473422580295139
 20
-2.5784912109375
 30
0.0
 10
1.471733940972222
 20
-2.576850043402778
 30
0.0
 10
1.469780815972222
 20
-2.575663248697917
 30
0.0
 10
1.467583550347222
 20
-2.574930826822917
 30
0.0
 10
1.465386284722222
 20
-2.574198404947917
 30
0.0
 10
1.463100857204861
 20
-2.573832194010417
 30
0.0
 10
1.460727267795139
 20
-2.573832194010417
 30
0.0
 10
1.457567003038194
 20
-2.573832194010417
 30
0.0
 10
1.454630533854167
 20
-2.5743408203125
 30
0.0
 10
1.451917860243056
 20
-2.575358072916667
 30
0.0
 10
1.449211968315972
 20
-2.576368543836805
 30
0.0
 10
1.446845160590278
 20
-2.577982584635417
 30
0.0
 10
1.444810655381944
 20
-2.580179850260417
 30
0.0
 10
1.442776150173611
 20
-2.582377115885417
 30
0.0
 10
1.441196017795139
 20
-2.585177951388889
 30
0.0
 10
1.4400634765625
 20
-2.58856201171875
 30
0.0
 10
1.438937717013889
 20
-2.591946072048611
 30
0.0
 10
1.438368055555556
 20
-2.595960828993055
 30
0.0
 10
1.438368055555556
 20
-2.6005859375
 30
0.0
 10
1.438368055555556
 20
-2.6005859375
 30
0.0
 10
1.438368055555556
 20
-2.641899956597222
 30
0.0
 10
1.438368055555556
 20
-2.641899956597222
 30
0.0
 10
1.438368055555556
 20
-2.641899956597222
 30
0.0
 10
1.423129611545139
 20
-2.641899956597222
 30
0.0
 10
1.423129611545139
 20
-2.641899956597222
 30
0.0
 10
1.423129611545139
 20
-2.641899956597222
 30
0.0
 10
1.423129611545139
 20
-2.561638726128472
 30
0.0
 10
1.423129611545139
 20
-2.561638726128472
 30
0.0
  0
SPLINE
  5
8B
330
7B
100
AcDbEntity
  8
Layer 1
 62
     1
370
    18
100
AcDbSpline
210
0.0
220
0.0
230
1.0
 70
    11
 71
     3
 72
    98
 73
    94
 74
     0
 42
0.0000000001
 43
0.0000000001
 40
0.0
 40
0.0
 40
0.0
 40
0.0
 40
1.0
 40
1.0
 40
1.0
 40
2.0
 40
2.0
 40
2.0
 40
3.0
 40
3.0
 40
3.0
 40
4.0
 40
4.0
 40
4.0
 40
5.0
 40
5.0
 40
5.0
 40
6.0
 40
6.0
 40
6.0
 40
7.0
 40
7.0
 40
7.0
 40
8.0
 40
8.0
 40
8.0
 40
9.0
 40
9.0
 40
9.0
 40
10.0
 40
10.0
 40
10.0
 40
11.0
 40
11.0
 40
11.0
 40
12.0
 40
12.0
 40
12.0
 40
13.0
 40
13.0
 40
13.0
 40
14.0
 40
14.0
 40
14.0
 40
15.0
 40
15.0
 40
15.0
 40
16.0
 40
16.0
 40
16.0
 40
17.0
 40
17.0
 40
17.0
 40
18.0
 40
18.0
 40
18.0
 40
19.0
 40
19.0
 40
19.0
 40
20.0
 40
20.0
 40
20.0
 40
21.0
 40
21.0
 40
21.0
 40
22.0
 40
22.0
 40
22.0
 40
23.0
 40
23.0
 40
23.0
 40
24.0
 40
24.0
 40
24.0
 40
25.0
 40
25.0
 40
25.0
 40
26.0
 40
26.0
 40
26.0
 40
27.0
 40
27.0
 40
27.0
 40
28.0
 40
28.0
 40
28.0
 40
29.0
 40
29.0
 40
29.0
 40
30.0
 40
30.0
 40
30.0
 40
31.0
 40
31.0
 40
31.0
 40
31.0
 10
1.59771728515625
 20
-2.641228569878472
 30
0.0
 10
1.59771728515625
 20
-2.647325303819444
 30
0.0
 10
1.596672905815972
 20
-2.652886284722222
 30
0.0
 10
1.594584147135417
 20
-2.657911512586805
 30
0.0
 10
1.592495388454861
 20
-2.662923177083333
 30
0.0
 10
1.589531792534722
 20
-2.667277018229167
 30
0.0
 10
1.585693359375
 20
-2.670939127604167
 30
0.0
 10
1.581854926215278
 20
-2.674608018663194
 30
0.0
 10
1.577229817708333
 20
-2.677463107638889
 30
0.0
 10
1.571811252170139
 20
-2.679497612847222
 30
0.0
 10
1.566392686631944
 20
-2.681525336371528
 30
0.0
 10
1.560404459635417
 20
-2.682542588975694
 30
0.0
 10
1.553860134548611
 20
-2.682542588975694
 30
0.0
 10
1.546183268229167
 20
-2.682542588975694
 30
0.0
 10
1.539150661892361
 20
-2.681471082899305
 30
0.0
 10
1.532782660590278
 20
-2.679328070746528
 30
0.0
 10
1.526401095920139
 20
-2.677178276909722
 30
0.0
 10
1.520331488715278
 20
-2.673455132378472
 30
0.0
 10
1.514573838975694
 20
-2.66815185546875
 30
0.0
 10
1.514573838975694
 20
-2.66815185546875
 30
0.0
 10
1.524909125434028
 20
-2.655287000868055
 30
0.0
 10
1.524909125434028
 20
-2.655287000868055
 30
0.0
 10
1.528856065538194
 20
-2.659566243489583
 30
0.0
 10
1.533148871527778
 20
-2.662814670138889
 30
0.0
 10
1.537773980034722
 20
-2.665018717447917
 30
0.0
 10
1.542405870225694
 20
-2.667215983072917
 30
0.0
 10
1.547654893663194
 20
-2.668314615885417
 30
0.0
 10
1.553521050347222
 20
-2.668314615885417
 30
0.0
 10
1.559163411458333
 20
-2.668314615885417
 30
0.0
 10
1.563849555121528
 20
-2.667494032118055
 30
0.0
 10
1.567572699652778
 20
-2.665866427951389
 30
0.0
 10
1.571302625868055
 20
-2.664225260416667
 30
0.0
 10
1.574266221788194
 20
-2.662102593315972
 30
0.0
 10
1.576463487413194
 20
-2.659511990017361
 30
0.0
 10
1.578667534722222
 20
-2.656914605034722
 30
0.0
 10
1.580220540364583
 20
-2.653951009114583
 30
0.0
 10
1.581122504340278
 20
-2.650627983940972
 30
0.0
 10
1.582024468315972
 20
-2.647291395399305
 30
0.0
 10
1.582478841145833
 20
-2.643934461805555
 30
0.0
 10
1.582478841145833
 20
-2.640550401475694
 30
0.0
 10
1.582478841145833
 20
-2.640550401475694
 30
0.0
 10
1.582478841145833
 20
-2.628696017795139
 30
0.0
 10
1.582478841145833
 20
-2.628696017795139
 30
0.0
 10
1.582478841145833
 20
-2.628696017795139
 30
0.0
 10
1.58197021484375
 20
-2.628696017795139
 30
0.0
 10
1.58197021484375
 20
-2.628696017795139
 30
0.0
 10
1.579033745659722
 20
-2.633544921875
 30
0.0
 10
1.575052897135417
 20
-2.637139214409722
 30
0.0
 10
1.570034450954861
 20
-2.639444986979167
 30
0.0
 10
1.565009223090278
 20
-2.641757541232639
 30
0.0
 10
1.559726291232639
 20
-2.642917209201389
 30
0.0
 10
1.55419921875
 20
-2.642917209201389
 30
0.0
 10
1.548326280381944
 20
-2.642917209201389
 30
0.0
 10
1.542880588107639
 20
-2.641872829861111
 30
0.0
 10
1.537855360243056
 20
-2.639784071180555
 30
0.0
 10
1.5328369140625
 20
-2.6376953125
 30
0.0
 10
1.528510199652778
 20
-2.634819878472222
 30
0.0
 10
1.524909125434028
 20
-2.631144205729167
 30
0.0
 10
1.521287706163194
 20
-2.627475314670139
 30
0.0
 10
1.518473307291667
 20
-2.623135036892361
 30
0.0
 10
1.516438802083333
 20
-2.618109809027778
 30
0.0
 10
1.514404296875
 20
-2.613084581163194
 30
0.0
 10
1.513393825954861
 20
-2.607638888888889
 30
0.0
 10
1.513393825954861
 20
-2.601765950520833
 30
0.0
 10
1.513393825954861
 20
-2.595906575520833
 30
0.0
 10
1.514350043402778
 20
-2.590399848090278
 30
0.0
 10
1.516262478298611
 20
-2.58526611328125
 30
0.0
 10
1.5181884765625
 20
-2.580125596788194
 30
0.0
 10
1.520921495225694
 20
-2.575636121961805
 30
0.0
 10
1.524481879340278
 20
-2.571797688802083
 30
0.0
 10
1.528035481770833
 20
-2.567966037326389
 30
0.0
 10
1.532328287760417
 20
-2.564975314670139
 30
0.0
 10
1.537353515625
 20
-2.562825520833333
 30
0.0
 10
1.542371961805556
 20
-2.560682508680555
 30
0.0
 10
1.547987196180556
 20
-2.559611002604167
 30
0.0
 10
1.55419921875
 20
-2.559611002604167
 30
0.0
 10
1.559617784288194
 20
-2.559611002604167
 30
0.0
 10
1.564893934461805
 20
-2.560791015625
 30
0.0
 10
1.570034450954861
 20
-2.563157823350694
 30
0.0
 10
1.575168185763889
 20
-2.565531412760417
 30
0.0
 10
1.579203287760417
 20
-2.568861219618055
 30
0.0
 10
1.582139756944444
 20
-2.573154025607639
 30
0.0
 10
1.582139756944444
 20
-2.573154025607639
 30
0.0
 10
1.582478841145833
 20
-2.573154025607639
 30
0.0
 10
1.582478841145833
 20
-2.573154025607639
 30
0.0
 10
1.582478841145833
 20
-2.573154025607639
 30
0.0
 10
1.582478841145833
 20
-2.561638726128472
 30
0.0
 10
1.582478841145833
 20
-2.561638726128472
 30
0.0
 10
1.582478841145833
 20
-2.561638726128472
 30
0.0
 10
1.59771728515625
 20
-2.561638726128472
 30
0.0
 10
1.59771728515625
 20
-2.561638726128472
 30
0.0
 10
1.59771728515625
 20
-2.561638726128472
 30
0.0
 10
1.59771728515625
 20
-2.641228569878472
 30
0.0
 10
1.59771728515625
 20
-2.641228569878472
 30
0.0
  0
SPLINE
  5
8C
330
7B
100
AcDbEntity
  8
Layer 1
 62
     1
370
    18
100
AcDbSpline
210
0.0
220
0.0
230
1.0
 70
    11
 71
     3
 72
    41
 73
    37
 74
     0
 42
0.0000000001
 43
0.0000000001
 40
0.0
 40
0.0
 40
0.0
 40
0.0
 40
1.0
 40
1.0
 40
1.0
 40
2.0
 40
2.0
 40
2.0
 40
3.0
 40
3.0
 40
3.0
 40
4.0
 40
4.0
 40
4.0
 40
5.0
 40
5.0
 40
5.0
 40
6.0
 40
6.0
 40
6.0
 40
7.0
 40
7.0
 40
7.0
 40
8.0
 40
8.0
 40
8.0
 40
9.0
 40
9.0
 40
9.0
 40
10.0
 40
10.0
 40
10.0
 40
11.0
 40
11.0
 40
11.0
 40
12.0
 40
12.0
 40
12.0
 40
12.0
 10
1.556057400173611
 20
-2.573832194010417
 30
0.0
 10
1.551995171440972
 20
-2.573832194010417
 30
0.0
 10
1.548326280381944
 20
-2.574537489149305
 30
0.0
 10
1.545050726996528
 20
-2.575948079427083
 30
0.0
 10
1.541775173611111
 20
-2.577358669704861
 30
0.0
 10
1.539015028211806
 20
-2.57928466796875
 30
0.0
 10
1.536756727430556
 20
-2.581705729166667
 30
0.0
 10
1.534491644965278
 20
-2.584133572048611
 30
0.0
 10
1.532748752170139
 20
-2.587070041232639
 30
0.0
 10
1.531507703993056
 20
-2.59051513671875
 30
0.0
 10
1.530266655815972
 20
-2.593953450520833
 30
0.0
 10
1.529649522569444
 20
-2.597710503472222
 30
0.0
 10
1.529649522569444
 20
-2.601765950520833
 30
0.0
 10
1.529649522569444
 20
-2.609903971354167
 30
0.0
 10
1.532016330295139
 20
-2.616414388020833
 30
0.0
 10
1.536756727430556
 20
-2.621324327256944
 30
0.0
 10
1.541497124565972
 20
-2.626234266493055
 30
0.0
 10
1.547932942708333
 20
-2.628696017795139
 30
0.0
 10
1.556057400173611
 20
-2.628696017795139
 30
0.0
 10
1.564195421006944
 20
-2.628696017795139
 30
0.0
 10
1.570624457465278
 20
-2.626234266493055
 30
0.0
 10
1.575364854600694
 20
-2.621324327256944
 30
0.0
 10
1.580105251736111
 20
-2.616414388020833
 30
0.0
 10
1.582478841145833
 20
-2.609903971354167
 30
0.0
 10
1.582478841145833
 20
-2.601765950520833
 30
0.0
 10
1.582478841145833
 20
-2.597710503472222
 30
0.0
 10
1.581854926215278
 20
-2.593953450520833
 30
0.0
 10
1.580613878038194
 20
-2.59051513671875
 30
0.0
 10
1.579372829861111
 20
-2.587070041232639
 30
0.0
 10
1.577623155381944
 20
-2.584133572048611
 30
0.0
 10
1.575364854600694
 20
-2.581705729166667
 30
0.0
 10
1.573106553819444
 20
-2.57928466796875
 30
0.0
 10
1.570339626736111
 20
-2.577358669704861
 30
0.0
 10
1.567070855034722
 20
-2.575948079427083
 30
0.0
 10
1.563788519965278
 20
-2.574537489149305
 30
0.0
 10
1.560126410590278
 20
-2.573832194010417
 30
0.0
 10
1.556057400173611
 20
-2.573832194010417
 30
0.0
  0
POLYLINE
  5
8D
330
7B
100
AcDbEntity
  8
Layer 1
 62
     1
370
    18
100
AcDb2dPolyline
 66
     1
 10
0.0
 20
0.0
 30
0.0
  0
VERTEX
  5
8E
330
8D
100
AcDbEntity
  8
Layer 1
 62
     1
370
    18
100
AcDbVertex
100
AcDb2dVertex
 10
1.671712239583333
 20
-2.522013346354167
 30
0.0
  0
VERTEX
  5
8F
330
8D
100
AcDbEntity
  8
Layer 1
 62
     1
370
    18
100
AcDbVertex
100
AcDb2dVertex
 10
1.687967936197917
 20
-2.522013346354167
 30
0.0
  0
VERTEX
  5
90
330
8D
100
AcDbEntity
  8
Layer 1
 62
     1
370
    18
100
AcDbVertex
100
AcDb2dVertex
 10
1.687967936197917
 20
-2.641899956597222
 30
0.0
  0
VERTEX
  5
91
330
8D
100
AcDbEntity
  8
Layer 1
 62
     1
370
    18
100
AcDbVertex
100
AcDb2dVertex
 10
1.671712239583333
 20
-2.641899956597222
 30
0.0
  0
VERTEX
  5
92
330
8D
100
AcDbEntity
  8
Layer 1
 62
     1
370
    18
100
AcDbVertex
100
AcDb2dVertex
 10
1.671712239583333
 20
-2.522013346354167
 30
0.0
  0
SEQEND
  5
93
330
8D
100
AcDbEntity
  8
Layer 1
370
    18
  0
SPLINE
  5
94
330
7B
100
AcDbEntity
  8
Layer 1
 62
     1
370
    18
100
AcDbSpline
210
0.0
220
0.0
230
1.0
 70
    11
 71
     3
 72
   125
 73
   121
 74
     0
 42
0.0000000001
 43
0.0000000001
 40
0.0
 40
0.0
 40
0.0
 40
0.0
 40
1.0
 40
1.0
 40
1.0
 40
2.0
 40
2.0
 40
2.0
 40
3.0
 40
3.0
 40
3.0
 40
4.0
 40
4.0
 40
4.0
 40
5.0
 40
5.0
 40
5.0
 40
6.0
 40
6.0
 40
6.0
 40
7.0
 40
7.0
 40
7.0
 40
8.0
 40
8.0
 40
8.0
 40
9.0
 40
9.0
 40
9.0
 40
10.0
 40
10.0
 40
10.0
 40
11.0
 40
11.0
 40
11.0
 40
12.0
 40
12.0
 40
12.0
 40
13.0
 40
13.0
 40
13.0
 40
14.0
 40
14.0
 40
14.0
 40
15.0
 40
15.0
 40
15.0
 40
16.0
 40
16.0
 40
16.0
 40
17.0
 40
17.0
 40
17.0
 40
18.0
 40
18.0
 40
18.0
 40
19.0
 40
19.0
 40
19.0
 40
20.0
 40
20.0
 40
20.0
 40
21.0
 40
21.0
 40
21.0
 40
22.0
 40
22.0
 40
22.0
 40
23.0
 40
23.0
 40
23.0
 40
24.0
 40
24.0
 40
24.0
 40
25.0
 40
25.0
 40
25.0
 40
26.0
 40
26.0
 40
26.0
 40
27.0
 40
27.0
 40
27.0
 40
28.0
 40
28.0
 40
28.0
 40
29.0
 40
29.0
 40
29.0
 40
30.0
 40
30.0
 40
30.0
 40
31.0
 40
31.0
 40
31.0
 40
32.0
 40
32.0
 40
32.0
 40
33.0
 40
33.0
 40
33.0
 40
34.0
 40
34.0
 40
34.0
 40
35.0
 40
35.0
 40
35.0
 40
36.0
 40
36.0
 40
36.0
 40
37.0
 40
37.0
 40
37.0
 40
38.0
 40
38.0
 40
38.0
 40
39.0
 40
39.0
 40
39.0
 40
40.0
 40
40.0
 40
40.0
 40
40.0
 10
1.757561577690972
 20
-2.581787109375
 30
0.0
 10
1.755764431423611
 20
-2.57952880859375
 30
0.0
 10
1.753533257378472
 20
-2.57763671875
 30
0.0
 10
1.750868055555555
 20
-2.576117621527778
 30
0.0
 10
1.748223198784722
 20
-2.574591742621528
 30
0.0
 10
1.744974772135417
 20
-2.573832194010417
 30
0.0
 10
1.741136338975694
 20
-2.573832194010417
 30
0.0
 10
1.737528483072917
 20
-2.573832194010417
 30
0.0
 10
1.734388563368055
 20
-2.574591742621528
 30
0.0
 10
1.731743706597222
 20
-2.576117621527778
 30
0.0
 10
1.729085286458333
 20
-2.57763671875
 30
0.0
 10
1.727762858072917
 20
-2.579867892795139
 30
0.0
 10
1.727762858072917
 20
-2.582804361979167
 30
0.0
 10
1.727762858072917
 20
-2.585177951388889
 30
0.0
 10
1.728529188368055
 20
-2.58709716796875
 30
0.0
 10
1.730055067274305
 20
-2.58856201171875
 30
0.0
 10
1.731574164496528
 20
-2.59002685546875
 30
0.0
 10
1.733371310763889
 20
-2.591213650173611
 30
0.0
 10
1.735466851128472
 20
-2.592122395833333
 30
0.0
 10
1.737555609809028
 20
-2.593024359809028
 30
0.0
 10
1.739786783854167
 20
-2.593702528211805
 30
0.0
 10
1.742160373263889
 20
-2.594150119357639
 30
0.0
 10
1.744533962673611
 20
-2.5946044921875
 30
0.0
 10
1.746554904513889
 20
-2.594997829861111
 30
0.0
 10
1.748257107204861
 20
-2.5953369140625
 30
0.0
 10
1.751519097222222
 20
-2.59613037109375
 30
0.0
 10
1.754597981770833
 20
-2.597086588541667
 30
0.0
 10
1.757486979166667
 20
-2.598219129774305
 30
0.0
 10
1.760362413194444
 20
-2.599344889322917
 30
0.0
 10
1.762837727864583
 20
-2.600809733072917
 30
0.0
 10
1.764933268229167
 20
-2.602620442708333
 30
0.0
 10
1.767015245225694
 20
-2.604424370659722
 30
0.0
 10
1.768663194444444
 20
-2.606621636284722
 30
0.0
 10
1.76983642578125
 20
-2.609219021267361
 30
0.0
 10
1.771030002170139
 20
-2.61181640625
 30
0.0
 10
1.771620008680555
 20
-2.614976671006944
 30
0.0
 10
1.771620008680555
 20
-2.618699815538194
 30
0.0
 10
1.771620008680555
 20
-2.623223198784722
 30
0.0
 10
1.770657009548611
 20
-2.627088758680555
 30
0.0
 10
1.768744574652778
 20
-2.630303276909722
 30
0.0
 10
1.766818576388889
 20
-2.633517795138889
 30
0.0
 10
1.764336480034722
 20
-2.636142306857639
 30
0.0
 10
1.761298285590278
 20
-2.638176812065972
 30
0.0
 10
1.758253309461805
 20
-2.640204535590278
 30
0.0
 10
1.754774305555555
 20
-2.641676161024305
 30
0.0
 10
1.750868055555555
 20
-2.642578125
 30
0.0
 10
1.746975368923611
 20
-2.643486870659722
 30
0.0
 10
1.743062337239583
 20
-2.643934461805555
 30
0.0
 10
1.739108615451389
 20
-2.643934461805555
 30
0.0
 10
1.732455783420139
 20
-2.643934461805555
 30
0.0
 10
1.726596408420139
 20
-2.642917209201389
 30
0.0
 10
1.721577962239583
 20
-2.640889485677083
 30
0.0
 10
1.716566297743055
 20
-2.63885498046875
 30
0.0
 10
1.712076822916667
 20
-2.635125054253472
 30
0.0
 10
1.708123101128472
 20
-2.629713270399305
 30
0.0
 10
1.708123101128472
 20
-2.629713270399305
 30
0.0
 10
1.719638400607639
 20
-2.620225694444444
 30
0.0
 10
1.719638400607639
 20
-2.620225694444444
 30
0.0
 10
1.722113715277778
 20
-2.622714572482639
 30
0.0
 10
1.724887424045139
 20
-2.624911838107639
 30
0.0
 10
1.727939181857639
 20
-2.6268310546875
 30
0.0
 10
1.730984157986111
 20
-2.628757052951389
 30
0.0
 10
1.734714084201389
 20
-2.629713270399305
 30
0.0
 10
1.739108615451389
 20
-2.629713270399305
 30
0.0
 10
1.741021050347222
 20
-2.629713270399305
 30
0.0
 10
1.742974175347222
 20
-2.629509819878472
 30
0.0
 10
1.744947645399305
 20
-2.629123263888889
 30
0.0
 10
1.746921115451389
 20
-2.62872314453125
 30
0.0
 10
1.748670789930555
 20
-2.628106011284722
 30
0.0
 10
1.750196668836805
 20
-2.627251519097222
 30
0.0
 10
1.751722547743055
 20
-2.626410590277778
 30
0.0
 10
1.752956814236111
 20
-2.625339084201389
 30
0.0
 10
1.753919813368055
 20
-2.624037000868055
 30
0.0
 10
1.7548828125
 20
-2.62274169921875
 30
0.0
 10
1.755357530381944
 20
-2.621249728732639
 30
0.0
 10
1.755357530381944
 20
-2.619547526041667
 30
0.0
 10
1.755357530381944
 20
-2.617289225260417
 30
0.0
 10
1.754652235243055
 20
-2.615431043836805
 30
0.0
 10
1.753248426649305
 20
-2.613966200086805
 30
0.0
 10
1.751837836371528
 20
-2.612494574652778
 30
0.0
 10
1.750135633680555
 20
-2.611341688368055
 30
0.0
 10
1.7481689453125
 20
-2.610487196180555
 30
0.0
 10
1.746188693576389
 20
-2.609639485677083
 30
0.0
 10
1.744099934895833
 20
-2.608968098958333
 30
0.0
 10
1.741895887586805
 20
-2.608452690972222
 30
0.0
 10
1.739698621961805
 20
-2.607950846354167
 30
0.0
 10
1.737759060329861
 20
-2.607530381944444
 30
0.0
 10
1.736056857638889
 20
-2.607191297743055
 30
0.0
 10
1.732781304253472
 20
-2.606404622395833
 30
0.0
 10
1.72967529296875
 20
-2.605495876736111
 30
0.0
 10
1.726738823784722
 20
-2.604478624131944
 30
0.0
 10
1.723809136284722
 20
-2.603468153211805
 30
0.0
 10
1.721204969618055
 20
-2.602105034722222
 30
0.0
 10
1.718967013888889
 20
-2.600423177083333
 30
0.0
 10
1.716688368055555
 20
-2.598720974392361
 30
0.0
 10
1.714898003472222
 20
-2.596577962239583
 30
0.0
 10
1.713541666666667
 20
-2.593980577256944
 30
0.0
 10
1.712171766493055
 20
-2.591389973958333
 30
0.0
 10
1.711500379774305
 20
-2.588168674045139
 30
0.0
 10
1.711500379774305
 20
-2.584330240885417
 30
0.0
 10
1.711500379774305
 20
-2.580159505208333
 30
0.0
 10
1.712375217013889
 20
-2.576510959201389
 30
0.0
 10
1.714131673177083
 20
-2.573404947916667
 30
0.0
 10
1.715888129340278
 20
-2.570305718315972
 30
0.0
 10
1.71820068359375
 20
-2.567728678385417
 30
0.0
 10
1.721076117621528
 20
-2.565707736545139
 30
0.0
 10
1.723951551649305
 20
-2.563673231336805
 30
0.0
 10
1.727227105034722
 20
-2.562147352430555
 30
0.0
 10
1.73089599609375
 20
-2.561136881510417
 30
0.0
 10
1.734564887152778
 20
-2.560112847222222
 30
0.0
 10
1.738260904947917
 20
-2.559611002604167
 30
0.0
 10
1.741984049479167
 20
-2.559611002604167
 30
0.0
 10
1.747409396701389
 20
-2.559611002604167
 30
0.0
 10
1.752597384982639
 20
-2.560621473524305
 30
0.0
 10
1.757561577690972
 20
-2.562655978732639
 30
0.0
 10
1.762532552083333
 20
-2.564683702256944
 30
0.0
 10
1.766486273871528
 20
-2.568074544270833
 30
0.0
 10
1.769415961371528
 20
-2.57281494140625
 30
0.0
 10
1.769415961371528
 20
-2.57281494140625
 30
0.0
 10
1.757561577690972
 20
-2.581787109375
 30
0.0
 10
1.757561577690972
 20
-2.581787109375
 30
0.0
  0
POLYLINE
  5
95
330
7B
100
AcDbEntity
  8
Layer 1
 62
     1
370
    18
100
AcDb2dPolyline
 66
     1
 10
0.0
 20
0.0
 30
0.0
  0
VERTEX
  5
96
330
95
100
AcDbEntity
  8
Layer 1
 62
     1
370
    18
100
AcDbVertex
100
AcDb2dVertex
 10
1.791266547309028
 20
-2.513888888888889
 30
0.0
  0
VERTEX
  5
97
330
95
100
AcDbEntity
  8
Layer 1
 62
     1
370
    18
100
AcDbVertex
100
AcDb2dVertex
 10
1.806504991319444
 20
-2.513888888888889
 30
0.0
  0
VERTEX
  5
98
330
95
100
AcDbEntity
  8
Layer 1
 62
     1
370
    18
100
AcDbVertex
100
AcDb2dVertex
 10
1.806504991319444
 20
-2.641899956597222
 30
0.0
  0
VERTEX
  5
99
330
95
100
AcDbEntity
  8
Layer 1
 62
     1
370
    18
100
AcDbVertex
100
AcDb2dVertex
 10
1.791266547309028
 20
-2.641899956597222
 30
0.0
  0
VERTEX
  5
9A
330
95
100
AcDbEntity
  8
Layer 1
 62
     1
370
    18
100
AcDbVertex
100
AcDb2dVertex
 10
1.791266547309028
 20
-2.513888888888889
 30
0.0
  0
SEQEND
  5
9B
330
95
100
AcDbEntity
  8
Layer 1
370
    18
  0
SPLINE
  5
9C
330
7B
100
AcDbEntity
  8
Layer 1
 62
     1
370
    18
100
AcDbSpline
210
0.0
220
0.0
230
1.0
 70
    11
 71
     3
 72
   104
 73
   100
 74
     0
 42
0.0000000001
 43
0.0000000001
 40
0.0
 40
0.0
 40
0.0
 40
0.0
 40
1.0
 40
1.0
 40
1.0
 40
2.0
 40
2.0
 40
2.0
 40
3.0
 40
3.0
 40
3.0
 40
4.0
 40
4.0
 40
4.0
 40
5.0
 40
5.0
 40
5.0
 40
6.0
 40
6.0
 40
6.0
 40
7.0
 40
7.0
 40
7.0
 40
8.0
 40
8.0
 40
8.0
 40
9.0
 40
9.0
 40
9.0
 40
10.0
 40
10.0
 40
10.0
 40
11.0
 40
11.0
 40
11.0
 40
12.0
 40
12.0
 40
12.0
 40
13.0
 40
13.0
 40
13.0
 40
14.0
 40
14.0
 40
14.0
 40
15.0
 40
15.0
 40
15.0
 40
16.0
 40
16.0
 40
16.0
 40
17.0
 40
17.0
 40
17.0
 40
18.0
 40
18.0
 40
18.0
 40
19.0
 40
19.0
 40
19.0
 40
20.0
 40
20.0
 40
20.0
 40
21.0
 40
21.0
 40
21.0
 40
22.0
 40
22.0
 40
22.0
 40
23.0
 40
23.0
 40
23.0
 40
24.0
 40
24.0
 40
24.0
 40
25.0
 40
25.0
 40
25.0
 40
26.0
 40
26.0
 40
26.0
 40
27.0
 40
27.0
 40
27.0
 40
28.0
 40
28.0
 40
28.0
 40
29.0
 40
29.0
 40
29.0
 40
30.0
 40
30.0
 40
30.0
 40
31.0
 40
31.0
 40
31.0
 40
32.0
 40
32.0
 40
32.0
 40
33.0
 40
33.0
 40
33.0
 40
33.0
 10
1.8310546875
 20
-2.571458604600694
 30
0.0
 10
1.835333930121528
 20
-2.567511664496528
 30
0.0
 10
1.840311686197917
 20
-2.564548068576389
 30
0.0
 10
1.845947265625
 20
-2.562567816840278
 30
0.0
 10
1.851603190104167
 20
-2.560594346788194
 30
0.0
 10
1.85723876953125
 20
-2.559611002604167
 30
0.0
 10
1.862887912326389
 20
-2.559611002604167
 30
0.0
 10
1.868754069010417
 20
-2.559611002604167
 30
0.0
 10
1.873799641927083
 20
-2.560343424479167
 30
0.0
 10
1.878044976128472
 20
-2.561808268229167
 30
0.0
 10
1.882269965277778
 20
-2.563273111979167
 30
0.0
 10
1.885748969184028
 20
-2.565253363715278
 30
0.0
 10
1.888454861111111
 20
-2.567728678385417
 30
0.0
 10
1.891153971354167
 20
-2.570217556423611
 30
0.0
 10
1.893168131510417
 20
-2.573065863715278
 30
0.0
 10
1.89447021484375
 20
-2.5762939453125
 30
0.0
 10
1.895758734809028
 20
-2.579501681857639
 30
0.0
 10
1.896402994791667
 20
-2.582865397135417
 30
0.0
 10
1.896402994791667
 20
-2.58636474609375
 30
0.0
 10
1.896402994791667
 20
-2.58636474609375
 30
0.0
 10
1.896402994791667
 20
-2.627339680989583
 30
0.0
 10
1.896402994791667
 20
-2.627339680989583
 30
0.0
 10
1.896402994791667
 20
-2.630160861545139
 30
0.0
 10
1.896464029947917
 20
-2.632758246527778
 30
0.0
 10
1.896579318576389
 20
-2.635125054253472
 30
0.0
 10
1.896694607204861
 20
-2.637505425347222
 30
0.0
 10
1.896870930989583
 20
-2.639763726128472
 30
0.0
 10
1.8970947265625
 20
-2.641899956597222
 30
0.0
 10
1.8970947265625
 20
-2.641899956597222
 30
0.0
 10
1.883551703559028
 20
-2.641899956597222
 30
0.0
 10
1.883551703559028
 20
-2.641899956597222
 30
0.0
 10
1.883205837673611
 20
-2.637837727864583
 30
0.0
 10
1.883036295572917
 20
-2.633782280815972
 30
0.0
 10
1.883036295572917
 20
-2.629713270399305
 30
0.0
 10
1.883036295572917
 20
-2.629713270399305
 30
0.0
 10
1.882703993055555
 20
-2.629713270399305
 30
0.0
 10
1.882703993055555
 20
-2.629713270399305
 30
0.0
 10
1.879313151041667
 20
-2.634908040364583
 30
0.0
 10
1.875298394097222
 20
-2.638570149739583
 30
0.0
 10
1.870680067274305
 20
-2.640719943576389
 30
0.0
 10
1.866048177083333
 20
-2.642856174045139
 30
0.0
 10
1.860690646701389
 20
-2.643934461805555
 30
0.0
 10
1.854593912760417
 20
-2.643934461805555
 30
0.0
 10
1.850870768229167
 20
-2.643934461805555
 30
0.0
 10
1.847296820746528
 20
-2.643425835503472
 30
0.0
 10
1.843919542100694
 20
-2.642408582899305
 30
0.0
 10
1.840528700086805
 20
-2.641391330295139
 30
0.0
 10
1.837565104166667
 20
-2.639865451388889
 30
0.0
 10
1.835035536024305
 20
-2.637837727864583
 30
0.0
 10
1.832485622829861
 20
-2.63580322265625
 30
0.0
 10
1.830491807725694
 20
-2.633293999565972
 30
0.0
 10
1.829026963975694
 20
-2.630303276909722
 30
0.0
 10
1.827562120225694
 20
-2.627312554253472
 30
0.0
 10
1.826829698350694
 20
-2.62384033203125
 30
0.0
 10
1.826829698350694
 20
-2.619886610243055
 30
0.0
 10
1.826829698350694
 20
-2.614698621961805
 30
0.0
 10
1.827975802951389
 20
-2.6103515625
 30
0.0
 10
1.830288357204861
 20
-2.606852213541667
 30
0.0
 10
1.832607693142361
 20
-2.603352864583333
 30
0.0
 10
1.835767957899305
 20
-2.600504557291667
 30
0.0
 10
1.839769151475694
 20
-2.598300509982639
 30
0.0
 10
1.843777126736111
 20
-2.596096462673611
 30
0.0
 10
1.848463270399305
 20
-2.594516330295139
 30
0.0
 10
1.853827582465278
 20
-2.593560112847222
 30
0.0
 10
1.85919189453125
 20
-2.592603895399305
 30
0.0
 10
1.864915635850694
 20
-2.592122395833333
 30
0.0
 10
1.871012369791667
 20
-2.592122395833333
 30
0.0
 10
1.871012369791667
 20
-2.592122395833333
 30
0.0
 10
1.882181803385417
 20
-2.592122395833333
 30
0.0
 10
1.882181803385417
 20
-2.592122395833333
 30
0.0
 10
1.882181803385417
 20
-2.592122395833333
 30
0.0
 10
1.882181803385417
 20
-2.588731553819444
 30
0.0
 10
1.882181803385417
 20
-2.588731553819444
 30
0.0
 10
1.882181803385417
 20
-2.586697048611111
 30
0.0
 10
1.881795247395833
 20
-2.584662543402778
 30
0.0
 10
1.881001790364583
 20
-2.5826416015625
 30
0.0
 10
1.880215115017361
 20
-2.580607096354167
 30
0.0
 10
1.879021538628472
 20
-2.578769259982639
 30
0.0
 10
1.877454969618055
 20
-2.577128092447917
 30
0.0
 10
1.875874837239583
 20
-2.57550048828125
 30
0.0
 10
1.873887803819444
 20
-2.574198404947917
 30
0.0
 10
1.871514214409722
 20
-2.5732421875
 30
0.0
 10
1.869160970052083
 20
-2.572279188368055
 30
0.0
 10
1.866326226128472
 20
-2.571797688802083
 30
0.0
 10
1.863057454427083
 20
-2.571797688802083
 30
0.0
 10
1.860107421875
 20
-2.571797688802083
 30
0.0
 10
1.857550726996528
 20
-2.57208251953125
 30
0.0
 10
1.855353461371528
 20
-2.572645399305555
 30
0.0
 10
1.8531494140625
 20
-2.573215060763889
 30
0.0
 10
1.851142035590278
 20
-2.57391357421875
 30
0.0
 10
1.849344889322917
 20
-2.57476806640625
 30
0.0
 10
1.8475341796875
 20
-2.575602213541667
 30
0.0
 10
1.845893012152778
 20
-2.57659912109375
 30
0.0
 10
1.844428168402778
 20
-2.577724880642361
 30
0.0
 10
1.842963324652778
 20
-2.578857421875
 30
0.0
 10
1.841552734375
 20
-2.579928927951389
 30
0.0
 10
1.840196397569444
 20
-2.580939398871528
 30
0.0
 10
1.840196397569444
 20
-2.580939398871528
 30
0.0
 10
1.8310546875
 20
-2.571458604600694
 30
0.0
 10
1.8310546875
 20
-2.571458604600694
 30
0.0
  0
SPLINE
  5
9D
330
7B
100
AcDbEntity
  8
Layer 1
 62
     1
370
    18
100
AcDbSpline
210
0.0
220
0.0
230
1.0
 70
    11
 71
     3
 72
    41
 73
    37
 74
     0
 42
0.0000000001
 43
0.0000000001
 40
0.0
 40
0.0
 40
0.0
 40
0.0
 40
1.0
 40
1.0
 40
1.0
 40
2.0
 40
2.0
 40
2.0
 40
3.0
 40
3.0
 40
3.0
 40
4.0
 40
4.0
 40
4.0
 40
5.0
 40
5.0
 40
5.0
 40
6.0
 40
6.0
 40
6.0
 40
7.0
 40
7.0
 40
7.0
 40
8.0
 40
8.0
 40
8.0
 40
9.0
 40
9.0
 40
9.0
 40
10.0
 40
10.0
 40
10.0
 40
11.0
 40
11.0
 40
11.0
 40
12.0
 40
12.0
 40
12.0
 40
12.0
 10
1.874064127604167
 20
-2.603291829427083
 30
0.0
 10
1.870449490017361
 20
-2.603291829427083
 30
0.0
 10
1.86676025390625
 20
-2.603495279947917
 30
0.0
 10
1.86297607421875
 20
-2.603888617621528
 30
0.0
 10
1.85919189453125
 20
-2.604288736979167
 30
0.0
 10
1.855740017361111
 20
-2.605048285590278
 30
0.0
 10
1.852634006076389
 20
-2.606174045138889
 30
0.0
 10
1.849527994791667
 20
-2.607306586371528
 30
0.0
 10
1.846998426649305
 20
-2.608879937065972
 30
0.0
 10
1.845011393229167
 20
-2.610914442274305
 30
0.0
 10
1.843044704861111
 20
-2.612948947482639
 30
0.0
 10
1.842054578993055
 20
-2.615546332465278
 30
0.0
 10
1.842054578993055
 20
-2.618699815538194
 30
0.0
 10
1.842054578993055
 20
-2.623331705729167
 30
0.0
 10
1.843607584635417
 20
-2.626661512586805
 30
0.0
 10
1.846713595920139
 20
-2.628696017795139
 30
0.0
 10
1.849812825520833
 20
-2.630730523003472
 30
0.0
 10
1.854017469618055
 20
-2.631747775607639
 30
0.0
 10
1.859334309895833
 20
-2.631747775607639
 30
0.0
 10
1.863505045572917
 20
-2.631747775607639
 30
0.0
 10
1.867058648003472
 20
-2.631035698784722
 30
0.0
 10
1.8699951171875
 20
-2.629625108506944
 30
0.0
 10
1.8729248046875
 20
-2.628207736545139
 30
0.0
 10
1.875298394097222
 20
-2.626376681857639
 30
0.0
 10
1.877109103732639
 20
-2.624118381076389
 30
0.0
 10
1.878919813368055
 20
-2.621860080295139
 30
0.0
 10
1.880215115017361
 20
-2.619357638888889
 30
0.0
 10
1.881001790364583
 20
-2.616590711805555
 30
0.0
 10
1.881795247395833
 20
-2.613817003038194
 30
0.0
 10
1.882181803385417
 20
-2.611083984375
 30
0.0
 10
1.882181803385417
 20
-2.608371310763889
 30
0.0
 10
1.882181803385417
 20
-2.608371310763889
 30
0.0
 10
1.882181803385417
 20
-2.603291829427083
 30
0.0
 10
1.882181803385417
 20
-2.603291829427083
 30
0.0
 10
1.882181803385417
 20
-2.603291829427083
 30
0.0
 10
1.874064127604167
 20
-2.603291829427083
 30
0.0
 10
1.874064127604167
 20
-2.603291829427083
 30
0.0
  0
SPLINE
  5
9E
330
7B
100
AcDbEntity
  8
Layer 1
 62
     1
370
    18
100
AcDbSpline
210
0.0
220
0.0
230
1.0
 70
    11
 71
     3
 72
    74
 73
    70
 74
     0
 42
0.0000000001
 43
0.0000000001
 40
0.0
 40
0.0
 40
0.0
 40
0.0
 40
1.0
 40
1.0
 40
1.0
 40
2.0
 40
2.0
 40
2.0
 40
3.0
 40
3.0
 40
3.0
 40
4.0
 40
4.0
 40
4.0
 40
5.0
 40
5.0
 40
5.0
 40
6.0
 40
6.0
 40
6.0
 40
7.0
 40
7.0
 40
7.0
 40
8.0
 40
8.0
 40
8.0
 40
9.0
 40
9.0
 40
9.0
 40
10.0
 40
10.0
 40
10.0
 40
11.0
 40
11.0
 40
11.0
 40
12.0
 40
12.0
 40
12.0
 40
13.0
 40
13.0
 40
13.0
 40
14.0
 40
14.0
 40
14.0
 40
15.0
 40
15.0
 40
15.0
 40
16.0
 40
16.0
 40
16.0
 40
17.0
 40
17.0
 40
17.0
 40
18.0
 40
18.0
 40
18.0
 40
19.0
 40
19.0
 40
19.0
 40
20.0
 40
20.0
 40
20.0
 40
21.0
 40
21.0
 40
21.0
 40
22.0
 40
22.0
 40
22.0
 40
23.0
 40
23.0
 40
23.0
 40
23.0
 10
1.918599446614583
 20
-2.561638726128472
 30
0.0
 10
1.918599446614583
 20
-2.561638726128472
 30
0.0
 10
1.933837890625
 20
-2.561638726128472
 30
0.0
 10
1.933837890625
 20
-2.561638726128472
 30
0.0
 10
1.933837890625
 20
-2.561638726128472
 30
0.0
 10
1.933837890625
 20
-2.574001736111111
 30
0.0
 10
1.933837890625
 20
-2.574001736111111
 30
0.0
 10
1.933837890625
 20
-2.574001736111111
 30
0.0
 10
1.934176974826389
 20
-2.574001736111111
 30
0.0
 10
1.934176974826389
 20
-2.574001736111111
 30
0.0
 10
1.936089409722222
 20
-2.569708930121528
 30
0.0
 10
1.939425998263889
 20
-2.566236707899305
 30
0.0
 10
1.944159613715278
 20
-2.563585069444444
 30
0.0
 10
1.948906792534722
 20
-2.560933430989583
 30
0.0
 10
1.954379611545139
 20
-2.559611002604167
 30
0.0
 10
1.960584852430555
 20
-2.559611002604167
 30
0.0
 10
1.964423285590278
 20
-2.559611002604167
 30
0.0
 10
1.968112521701389
 20
-2.560201009114583
 30
0.0
 10
1.9716796875
 20
-2.561381022135417
 30
0.0
 10
1.975233289930555
 20
-2.562567816840278
 30
0.0
 10
1.978346082899305
 20
-2.564405653211805
 30
0.0
 10
1.980990939670139
 20
-2.566887749565972
 30
0.0
 10
1.983649359809028
 20
-2.569376627604167
 30
0.0
 10
1.985758463541667
 20
-2.572557237413194
 30
0.0
 10
1.987338595920139
 20
-2.576456705729167
 30
0.0
 10
1.988925509982639
 20
-2.580349392361111
 30
0.0
 10
1.989718967013889
 20
-2.584954155815972
 30
0.0
 10
1.989718967013889
 20
-2.590257432725694
 30
0.0
 10
1.989718967013889
 20
-2.590257432725694
 30
0.0
 10
1.989718967013889
 20
-2.641899956597222
 30
0.0
 10
1.989718967013889
 20
-2.641899956597222
 30
0.0
 10
1.989718967013889
 20
-2.641899956597222
 30
0.0
 10
1.974473741319444
 20
-2.641899956597222
 30
0.0
 10
1.974473741319444
 20
-2.641899956597222
 30
0.0
 10
1.974473741319444
 20
-2.641899956597222
 30
0.0
 10
1.974473741319444
 20
-2.594482421875
 30
0.0
 10
1.974473741319444
 20
-2.594482421875
 30
0.0
 10
1.974473741319444
 20
-2.59075927734375
 30
0.0
 10
1.973971896701389
 20
-2.587578667534722
 30
0.0
 10
1.972947862413194
 20
-2.584920247395833
 30
0.0
 10
1.971930609809028
 20
-2.582275390625
 30
0.0
 10
1.970574273003472
 20
-2.580125596788194
 30
0.0
 10
1.968878851996528
 20
-2.5784912109375
 30
0.0
 10
1.967196994357639
 20
-2.576850043402778
 30
0.0
 10
1.965243869357639
 20
-2.575663248697917
 30
0.0
 10
1.963039822048611
 20
-2.574930826822917
 30
0.0
 10
1.960842556423611
 20
-2.574198404947917
 30
0.0
 10
1.958550347222222
 20
-2.573832194010417
 30
0.0
 10
1.956183539496528
 20
-2.573832194010417
 30
0.0
 10
1.953016493055555
 20
-2.573832194010417
 30
0.0
 10
1.950086805555555
 20
-2.5743408203125
 30
0.0
 10
1.947380913628472
 20
-2.575358072916667
 30
0.0
 10
1.944675021701389
 20
-2.576368543836805
 30
0.0
 10
1.942308213975694
 20
-2.577982584635417
 30
0.0
 10
1.940266927083333
 20
-2.580179850260417
 30
0.0
 10
1.938232421875
 20
-2.582377115885417
 30
0.0
 10
1.936659071180555
 20
-2.585177951388889
 30
0.0
 10
1.935533311631944
 20
-2.58856201171875
 30
0.0
 10
1.934400770399305
 20
-2.591946072048611
 30
0.0
 10
1.933837890625
 20
-2.595960828993055
 30
0.0
 10
1.933837890625
 20
-2.6005859375
 30
0.0
 10
1.933837890625
 20
-2.6005859375
 30
0.0
 10
1.933837890625
 20
-2.641899956597222
 30
0.0
 10
1.933837890625
 20
-2.641899956597222
 30
0.0
 10
1.933837890625
 20
-2.641899956597222
 30
0.0
 10
1.918599446614583
 20
-2.641899956597222
 30
0.0
 10
1.918599446614583
 20
-2.641899956597222
 30
0.0
 10
1.918599446614583
 20
-2.641899956597222
 30
0.0
 10
1.918599446614583
 20
-2.561638726128472
 30
0.0
 10
1.918599446614583
 20
-2.561638726128472
 30
0.0
  0
SPLINE
  5
9F
330
7B
100
AcDbEntity
  8
Layer 1
 62
     1
370
    18
100
AcDbSpline
210
0.0
220
0.0
230
1.0
 70
    11
 71
     3
 72
    62
 73
    58
 74
     0
 42
0.0000000001
 43
0.0000000001
 40
0.0
 40
0.0
 40
0.0
 40
0.0
 40
1.0
 40
1.0
 40
1.0
 40
2.0
 40
2.0
 40
2.0
 40
3.0
 40
3.0
 40
3.0
 40
4.0
 40
4.0
 40
4.0
 40
5.0
 40
5.0
 40
5.0
 40
6.0
 40
6.0
 40
6.0
 40
7.0
 40
7.0
 40
7.0
 40
8.0
 40
8.0
 40
8.0
 40
9.0
 40
9.0
 40
9.0
 40
10.0
 40
10.0
 40
10.0
 40
11.0
 40
11.0
 40
11.0
 40
12.0
 40
12.0
 40
12.0
 40
13.0
 40
13.0
 40
13.0
 40
14.0
 40
14.0
 40
14.0
 40
15.0
 40
15.0
 40
15.0
 40
16.0
 40
16.0
 40
16.0
 40
17.0
 40
17.0
 40
17.0
 40
18.0
 40
18.0
 40
18.0
 40
19.0
 40
19.0
 40
19.0
 40
19.0
 10
2.093173556857639
 20
-2.641899956597222
 30
0.0
 10
2.093173556857639
 20
-2.641899956597222
 30
0.0
 10
2.077928331163194
 20
-2.641899956597222
 30
0.0
 10
2.077928331163194
 20
-2.641899956597222
 30
0.0
 10
2.077928331163194
 20
-2.641899956597222
 30
0.0
 10
2.077928331163194
 20
-2.630384657118055
 30
0.0
 10
2.077928331163194
 20
-2.630384657118055
 30
0.0
 10
2.077928331163194
 20
-2.630384657118055
 30
0.0
 10
2.077602810329861
 20
-2.630384657118055
 30
0.0
 10
2.077602810329861
 20
-2.630384657118055
 30
0.0
 10
2.074652777777778
 20
-2.634677463107639
 30
0.0
 10
2.070624457465278
 20
-2.638007269965278
 30
0.0
 10
2.065497504340278
 20
-2.640374077690972
 30
0.0
 10
2.060350206163194
 20
-2.642754448784722
 30
0.0
 10
2.055080837673611
 20
-2.643934461805555
 30
0.0
 10
2.049662272135417
 20
-2.643934461805555
 30
0.0
 10
2.043450249565972
 20
-2.643934461805555
 30
0.0
 10
2.037828233506944
 20
-2.642856174045139
 30
0.0
 10
2.032809787326389
 20
-2.640719943576389
 30
0.0
 10
2.027791341145833
 20
-2.638570149739583
 30
0.0
 10
2.023491753472222
 20
-2.635579427083333
 30
0.0
 10
2.019938151041667
 20
-2.631747775607639
 30
0.0
 10
2.016391330295139
 20
-2.627902560763889
 30
0.0
 10
2.013644748263889
 20
-2.623446994357639
 30
0.0
 10
2.011732313368055
 20
-2.618360731336805
 30
0.0
 10
2.009799533420139
 20
-2.613288031684028
 30
0.0
 10
2.008856879340278
 20
-2.607760959201389
 30
0.0
 10
2.008856879340278
 20
-2.601765950520833
 30
0.0
 10
2.008856879340278
 20
-2.595784505208333
 30
0.0
 10
2.009799533420139
 20
-2.590230305989583
 30
0.0
 10
2.011732313368055
 20
-2.585089789496528
 30
0.0
 10
2.013644748263889
 20
-2.5799560546875
 30
0.0
 10
2.016391330295139
 20
-2.57550048828125
 30
0.0
 10
2.019938151041667
 20
-2.57171630859375
 30
0.0
 10
2.023491753472222
 20
-2.56793212890625
 30
0.0
 10
2.027791341145833
 20
-2.564975314670139
 30
0.0
 10
2.032809787326389
 20
-2.562825520833333
 30
0.0
 10
2.037828233506944
 20
-2.560682508680555
 30
0.0
 10
2.043450249565972
 20
-2.559611002604167
 30
0.0
 10
2.049662272135417
 20
-2.559611002604167
 30
0.0
 10
2.055413140190972
 20
-2.559611002604167
 30
0.0
 10
2.060838487413194
 20
-2.560824924045139
 30
0.0
 10
2.065911187065972
 20
-2.563245985243055
 30
0.0
 10
2.070990668402778
 20
-2.565673828125
 30
0.0
 10
2.074883355034722
 20
-2.568976508246528
 30
0.0
 10
2.077602810329861
 20
-2.573154025607639
 30
0.0
 10
2.077602810329861
 20
-2.573154025607639
 30
0.0
 10
2.077928331163194
 20
-2.573154025607639
 30
0.0
 10
2.077928331163194
 20
-2.573154025607639
 30
0.0
 10
2.077928331163194
 20
-2.573154025607639
 30
0.0
 10
2.077928331163194
 20
-2.513888888888889
 30
0.0
 10
2.077928331163194
 20
-2.513888888888889
 30
0.0
 10
2.077928331163194
 20
-2.513888888888889
 30
0.0
 10
2.093173556857639
 20
-2.513888888888889
 30
0.0
 10
2.093173556857639
 20
-2.513888888888889
 30
0.0
 10
2.093173556857639
 20
-2.513888888888889
 30
0.0
 10
2.093173556857639
 20
-2.641899956597222
 30
0.0
 10
2.093173556857639
 20
-2.641899956597222
 30
0.0
  0
SPLINE
  5
A0
330
7B
100
AcDbEntity
  8
Layer 1
 62
     1
370
    18
100
AcDbSpline
210
0.0
220
0.0
230
1.0
 70
    11
 71
     3
 72
    53
 73
    49
 74
     0
 42
0.0000000001
 43
0.0000000001
 40
0.0
 40
0.0
 40
0.0
 40
0.0
 40
1.0
 40
1.0
 40
1.0
 40
2.0
 40
2.0
 40
2.0
 40
3.0
 40
3.0
 40
3.0
 40
4.0
 40
4.0
 40
4.0
 40
5.0
 40
5.0
 40
5.0
 40
6.0
 40
6.0
 40
6.0
 40
7.0
 40
7.0
 40
7.0
 40
8.0
 40
8.0
 40
8.0
 40
9.0
 40
9.0
 40
9.0
 40
10.0
 40
10.0
 40
10.0
 40
11.0
 40
11.0
 40
11.0
 40
12.0
 40
12.0
 40
12.0
 40
13.0
 40
13.0
 40
13.0
 40
14.0
 40
14.0
 40
14.0
 40
15.0
 40
15.0
 40
15.0
 40
16.0
 40
16.0
 40
16.0
 40
16.0
 10
2.051520453559028
 20
-2.629713270399305
 30
0.0
 10
2.055589463975694
 20
-2.629713270399305
 30
0.0
 10
2.059251573350694
 20
-2.629001193576389
 30
0.0
 10
2.062533908420139
 20
-2.627597384982639
 30
0.0
 10
2.0657958984375
 20
-2.626186794704861
 30
0.0
 10
2.068569607204861
 20
-2.624260796440972
 30
0.0
 10
2.070827907986111
 20
-2.621839735243055
 30
0.0
 10
2.073086208767361
 20
-2.619411892361111
 30
0.0
 10
2.0748291015625
 20
-2.616475423177083
 30
0.0
 10
2.076076931423611
 20
-2.613030327690972
 30
0.0
 10
2.077317979600694
 20
-2.609592013888889
 30
0.0
 10
2.077928331163194
 20
-2.6058349609375
 30
0.0
 10
2.077928331163194
 20
-2.601765950520833
 30
0.0
 10
2.077928331163194
 20
-2.597710503472222
 30
0.0
 10
2.077317979600694
 20
-2.593953450520833
 30
0.0
 10
2.076076931423611
 20
-2.59051513671875
 30
0.0
 10
2.0748291015625
 20
-2.587070041232639
 30
0.0
 10
2.073086208767361
 20
-2.584133572048611
 30
0.0
 10
2.070827907986111
 20
-2.581705729166667
 30
0.0
 10
2.068569607204861
 20
-2.57928466796875
 30
0.0
 10
2.0657958984375
 20
-2.577358669704861
 30
0.0
 10
2.062533908420139
 20
-2.575948079427083
 30
0.0
 10
2.059251573350694
 20
-2.574537489149305
 30
0.0
 10
2.055589463975694
 20
-2.573832194010417
 30
0.0
 10
2.051520453559028
 20
-2.573832194010417
 30
0.0
 10
2.047465006510417
 20
-2.573832194010417
 30
0.0
 10
2.043782552083333
 20
-2.574537489149305
 30
0.0
 10
2.040513780381944
 20
-2.575948079427083
 30
0.0
 10
2.037238226996528
 20
-2.577358669704861
 30
0.0
 10
2.034478081597222
 20
-2.57928466796875
 30
0.0
 10
2.032219780815972
 20
-2.581705729166667
 30
0.0
 10
2.029961480034722
 20
-2.584133572048611
 30
0.0
 10
2.028211805555555
 20
-2.587070041232639
 30
0.0
 10
2.026970757378472
 20
-2.59051513671875
 30
0.0
 10
2.025722927517361
 20
-2.593953450520833
 30
0.0
 10
2.025099012586805
 20
-2.597710503472222
 30
0.0
 10
2.025099012586805
 20
-2.601765950520833
 30
0.0
 10
2.025099012586805
 20
-2.6058349609375
 30
0.0
 10
2.025722927517361
 20
-2.609592013888889
 30
0.0
 10
2.026970757378472
 20
-2.613030327690972
 30
0.0
 10
2.028211805555555
 20
-2.616475423177083
 30
0.0
 10
2.029961480034722
 20
-2.619411892361111
 30
0.0
 10
2.032219780815972
 20
-2.621839735243055
 30
0.0
 10
2.034478081597222
 20
-2.624260796440972
 30
0.0
 10
2.037238226996528
 20
-2.626186794704861
 30
0.0
 10
2.040513780381944
 20
-2.627597384982639
 30
0.0
 10
2.043782552083333
 20
-2.629001193576389
 30
0.0
 10
2.047465006510417
 20
-2.629713270399305
 30
0.0
 10
2.051520453559028
 20
-2.629713270399305
 30
0.0
  0
POLYLINE
  5
A1
330
7B
100
AcDbEntity
  8
Layer 1
 62
     1
370
    18
100
AcDb2dPolyline
 66
     1
 10
0.0
 20
0.0
 30
0.0
  0
VERTEX
  5
A2
330
A1
100
AcDbEntity
  8
Layer 1
 62
     1
370
    18
100
AcDbVertex
100
AcDb2dVertex
 10
2.165974934895833
 20
-2.522013346354167
 30
0.0
  0
VERTEX
  5
A3
330
A1
100
AcDbEntity
  8
Layer 1
 62
     1
370
    18
100
AcDbVertex
100
AcDb2dVertex
 10
2.190192328559028
 20
-2.522013346354167
 30
0.0
  0
VERTEX
  5
A4
330
A1
100
AcDbEntity
  8
Layer 1
 62
     1
370
    18
100
AcDbVertex
100
AcDb2dVertex
 10
2.228298611111111
 20
-2.612772623697917
 30
0.0
  0
VERTEX
  5
A5
330
A1
100
AcDbEntity
  8
Layer 1
 62
     1
370
    18
100
AcDbVertex
100
AcDb2dVertex
 10
2.228976779513889
 20
-2.612772623697917
 30
0.0
  0
VERTEX
  5
A6
330
A1
100
AcDbEntity
  8
Layer 1
 62
     1
370
    18
100
AcDbVertex
100
AcDb2dVertex
 10
2.266737196180555
 20
-2.522013346354167
 30
0.0
  0
VERTEX
  5
A7
330
A1
100
AcDbEntity
  8
Layer 1
 62
     1
370
    18
100
AcDbVertex
100
AcDb2dVertex
 10
2.290947808159722
 20
-2.522013346354167
 30
0.0
  0
VERTEX
  5
A8
330
A1
100
AcDbEntity
  8
Layer 1
 62
     1
370
    18
100
AcDbVertex
100
AcDb2dVertex
 10
2.290947808159722
 20
-2.641899956597222
 30
0.0
  0
VERTEX
  5
A9
330
A1
100
AcDbEntity
  8
Layer 1
 62
     1
370
    18
100
AcDbVertex
100
AcDb2dVertex
 10
2.274705674913194
 20
-2.641899956597222
 30
0.0
  0
VERTEX
  5
AA
330
A1
100
AcDbEntity
  8
Layer 1
 62
     1
370
    18
100
AcDbVertex
100
AcDb2dVertex
 10
2.274705674913194
 20
-2.543355305989583
 30
0.0
  0
VERTEX
  5
AB
330
A1
100
AcDbEntity
  8
Layer 1
 62
     1
370
    18
100
AcDbVertex
100
AcDb2dVertex
 10
2.274359809027778
 20
-2.543355305989583
 30
0.0
  0
VERTEX
  5
AC
330
A1
100
AcDbEntity
  8
Layer 1
 62
     1
370
    18
100
AcDbVertex
100
AcDb2dVertex
 10
2.233893500434028
 20
-2.641899956597222
 30
0.0
  0
VERTEX
  5
AD
330
A1
100
AcDbEntity
  8
Layer 1
 62
     1
370
    18
100
AcDbVertex
100
AcDb2dVertex
 10
2.223049587673611
 20
-2.641899956597222
 30
0.0
  0
VERTEX
  5
AE
330
A1
100
AcDbEntity
  8
Layer 1
 62
     1
370
    18
100
AcDbVertex
100
AcDb2dVertex
 10
2.182576497395833
 20
-2.543355305989583
 30
0.0
  0
VERTEX
  5
AF
330
A1
100
AcDbEntity
  8
Layer 1
 62
     1
370
    18
100
AcDbVertex
100
AcDb2dVertex
 10
2.182244194878472
 20
-2.543355305989583
 30
0.0
  0
VERTEX
  5
B0
330
A1
100
AcDbEntity
  8
Layer 1
 62
     1
370
    18
100
AcDbVertex
100
AcDb2dVertex
 10
2.182244194878472
 20
-2.641899956597222
 30
0.0
  0
VERTEX
  5
B1
330
A1
100
AcDbEntity
  8
Layer 1
 62
     1
370
    18
100
AcDbVertex
100
AcDb2dVertex
 10
2.165974934895833
 20
-2.641899956597222
 30
0.0
  0
VERTEX
  5
B2
330
A1
100
AcDbEntity
  8
Layer 1
 62
     1
370
    18
100
AcDbVertex
100
AcDb2dVertex
 10
2.165974934895833
 20
-2.522013346354167
 30
0.0
  0
SEQEND
  5
B3
330
A1
100
AcDbEntity
  8
Layer 1
370
    18
  0
SPLINE
  5
B4
330
7B
100
AcDbEntity
  8
Layer 1
 62
     1
370
    18
100
AcDbSpline
210
0.0
220
0.0
230
1.0
 70
    11
 71
     3
 72
   104
 73
   100
 74
     0
 42
0.0000000001
 43
0.0000000001
 40
0.0
 40
0.0
 40
0.0
 40
0.0
 40
1.0
 40
1.0
 40
1.0
 40
2.0
 40
2.0
 40
2.0
 40
3.0
 40
3.0
 40
3.0
 40
4.0
 40
4.0
 40
4.0
 40
5.0
 40
5.0
 40
5.0
 40
6.0
 40
6.0
 40
6.0
 40
7.0
 40
7.0
 40
7.0
 40
8.0
 40
8.0
 40
8.0
 40
9.0
 40
9.0
 40
9.0
 40
10.0
 40
10.0
 40
10.0
 40
11.0
 40
11.0
 40
11.0
 40
12.0
 40
12.0
 40
12.0
 40
13.0
 40
13.0
 40
13.0
 40
14.0
 40
14.0
 40
14.0
 40
15.0
 40
15.0
 40
15.0
 40
16.0
 40
16.0
 40
16.0
 40
17.0
 40
17.0
 40
17.0
 40
18.0
 40
18.0
 40
18.0
 40
19.0
 40
19.0
 40
19.0
 40
20.0
 40
20.0
 40
20.0
 40
21.0
 40
21.0
 40
21.0
 40
22.0
 40
22.0
 40
22.0
 40
23.0
 40
23.0
 40
23.0
 40
24.0
 40
24.0
 40
24.0
 40
25.0
 40
25.0
 40
25.0
 40
26.0
 40
26.0
 40
26.0
 40
27.0
 40
27.0
 40
27.0
 40
28.0
 40
28.0
 40
28.0
 40
29.0
 40
29.0
 40
29.0
 40
30.0
 40
30.0
 40
30.0
 40
31.0
 40
31.0
 40
31.0
 40
32.0
 40
32.0
 40
32.0
 40
33.0
 40
33.0
 40
33.0
 40
33.0
 10
2.317036946614583
 20
-2.571458604600694
 30
0.0
 10
2.321316189236111
 20
-2.567511664496528
 30
0.0
 10
2.326280381944444
 20
-2.564548068576389
 30
0.0
 10
2.331936306423611
 20
-2.562567816840278
 30
0.0
 10
2.337571885850694
 20
-2.560594346788194
 30
0.0
 10
2.343221028645833
 20
-2.559611002604167
 30
0.0
 10
2.348856608072917
 20
-2.559611002604167
 30
0.0
 10
2.354743109809028
 20
-2.559611002604167
 30
0.0
 10
2.359788682725694
 20
-2.560343424479167
 30
0.0
 10
2.364013671875
 20
-2.561808268229167
 30
0.0
 10
2.368252224392361
 20
-2.563273111979167
 30
0.0
 10
2.371724446614583
 20
-2.565253363715278
 30
0.0
 10
2.374437120225694
 20
-2.567728678385417
 30
0.0
 10
2.377143012152778
 20
-2.570217556423611
 30
0.0
 10
2.379136827256944
 20
-2.573065863715278
 30
0.0
 10
2.380452473958333
 20
-2.5762939453125
 30
0.0
 10
2.381740993923611
 20
-2.579501681857639
 30
0.0
 10
2.382392035590278
 20
-2.582865397135417
 30
0.0
 10
2.382392035590278
 20
-2.58636474609375
 30
0.0
 10
2.382392035590278
 20
-2.58636474609375
 30
0.0
 10
2.382392035590278
 20
-2.627339680989583
 30
0.0
 10
2.382392035590278
 20
-2.627339680989583
 30
0.0
 10
2.382392035590278
 20
-2.630160861545139
 30
0.0
 10
2.3824462890625
 20
-2.632758246527778
 30
0.0
 10
2.382561577690972
 20
-2.635125054253472
 30
0.0
 10
2.382676866319444
 20
-2.637505425347222
 30
0.0
 10
2.382839626736111
 20
-2.639763726128472
 30
0.0
 10
2.383063422309028
 20
-2.641899956597222
 30
0.0
 10
2.383063422309028
 20
-2.641899956597222
 30
0.0
 10
2.369520399305555
 20
-2.641899956597222
 30
0.0
 10
2.369520399305555
 20
-2.641899956597222
 30
0.0
 10
2.369188096788194
 20
-2.637837727864583
 30
0.0
 10
2.3690185546875
 20
-2.633782280815972
 30
0.0
 10
2.3690185546875
 20
-2.629713270399305
 30
0.0
 10
2.3690185546875
 20
-2.629713270399305
 30
0.0
 10
2.368672688802083
 20
-2.629713270399305
 30
0.0
 10
2.368672688802083
 20
-2.629713270399305
 30
0.0
 10
2.36529541015625
 20
-2.634908040364583
 30
0.0
 10
2.361280653211805
 20
-2.638570149739583
 30
0.0
 10
2.356655544704861
 20
-2.640719943576389
 30
0.0
 10
2.352016872829861
 20
-2.642856174045139
 30
0.0
 10
2.346659342447917
 20
-2.643934461805555
 30
0.0
 10
2.340562608506944
 20
-2.643934461805555
 30
0.0
 10
2.336839463975694
 20
-2.643934461805555
 30
0.0
 10
2.333285861545139
 20
-2.643425835503472
 30
0.0
 10
2.329901801215278
 20
-2.642408582899305
 30
0.0
 10
2.326510959201389
 20
-2.641391330295139
 30
0.0
 10
2.323554144965278
 20
-2.639865451388889
 30
0.0
 10
2.321004231770833
 20
-2.637837727864583
 30
0.0
 10
2.318474663628472
 20
-2.63580322265625
 30
0.0
 10
2.316460503472222
 20
-2.633293999565972
 30
0.0
 10
2.314988878038194
 20
-2.630303276909722
 30
0.0
 10
2.313524034288194
 20
-2.627312554253472
 30
0.0
 10
2.312791612413194
 20
-2.62384033203125
 30
0.0
 10
2.312791612413194
 20
-2.619886610243055
 30
0.0
 10
2.312791612413194
 20
-2.614698621961805
 30
0.0
 10
2.313958062065972
 20
-2.6103515625
 30
0.0
 10
2.316270616319444
 20
-2.606852213541667
 30
0.0
 10
2.318569607204861
 20
-2.603352864583333
 30
0.0
 10
2.321736653645833
 20
-2.600504557291667
 30
0.0
 10
2.325751410590278
 20
-2.598300509982639
 30
0.0
 10
2.329759385850694
 20
-2.596096462673611
 30
0.0
 10
2.334438747829861
 20
-2.594516330295139
 30
0.0
 10
2.339796278211805
 20
-2.593560112847222
 30
0.0
 10
2.345160590277778
 20
-2.592603895399305
 30
0.0
 10
2.350897894965278
 20
-2.592122395833333
 30
0.0
 10
2.357001410590278
 20
-2.592122395833333
 30
0.0
 10
2.357001410590278
 20
-2.592122395833333
 30
0.0
 10
2.3681640625
 20
-2.592122395833333
 30
0.0
 10
2.3681640625
 20
-2.592122395833333
 30
0.0
 10
2.3681640625
 20
-2.592122395833333
 30
0.0
 10
2.3681640625
 20
-2.588731553819444
 30
0.0
 10
2.3681640625
 20
-2.588731553819444
 30
0.0
 10
2.3681640625
 20
-2.586697048611111
 30
0.0
 10
2.367763943142361
 20
-2.584662543402778
 30
0.0
 10
2.366977267795139
 20
-2.5826416015625
 30
0.0
 10
2.366183810763889
 20
-2.580607096354167
 30
0.0
 10
2.365003797743055
 20
-2.578769259982639
 30
0.0
 10
2.363423665364583
 20
-2.577128092447917
 30
0.0
 10
2.361843532986111
 20
-2.57550048828125
 30
0.0
 10
2.359870062934028
 20
-2.574198404947917
 30
0.0
 10
2.357496473524305
 20
-2.5732421875
 30
0.0
 10
2.355129665798611
 20
-2.572279188368055
 30
0.0
 10
2.352308485243055
 20
-2.571797688802083
 30
0.0
 10
2.349026150173611
 20
-2.571797688802083
 30
0.0
 10
2.346096462673611
 20
-2.571797688802083
 30
0.0
 10
2.343532986111111
 20
-2.57208251953125
 30
0.0
 10
2.341322157118055
 20
-2.572645399305555
 30
0.0
 10
2.339118109809028
 20
-2.573215060763889
 30
0.0
 10
2.337124294704861
 20
-2.57391357421875
 30
0.0
 10
2.335313585069444
 20
-2.57476806640625
 30
0.0
 10
2.333516438802083
 20
-2.575602213541667
 30
0.0
 10
2.331875271267361
 20
-2.57659912109375
 30
0.0
 10
2.330410427517361
 20
-2.577724880642361
 30
0.0
 10
2.328945583767361
 20
-2.578857421875
 30
0.0
 10
2.327534993489583
 20
-2.579928927951389
 30
0.0
 10
2.326165093315972
 20
-2.580939398871528
 30
0.0
 10
2.326165093315972
 20
-2.580939398871528
 30
0.0
 10
2.317036946614583
 20
-2.571458604600694
 30
0.0
 10
2.317036946614583
 20
-2.571458604600694
 30
0.0
  0
SPLINE
  5
B5
330
7B
100
AcDbEntity
  8
Layer 1
 62
     1
370
    18
100
AcDbSpline
210
0.0
220
0.0
230
1.0
 70
    11
 71
     3
 72
    41
 73
    37
 74
     0
 42
0.0000000001
 43
0.0000000001
 40
0.0
 40
0.0
 40
0.0
 40
0.0
 40
1.0
 40
1.0
 40
1.0
 40
2.0
 40
2.0
 40
2.0
 40
3.0
 40
3.0
 40
3.0
 40
4.0
 40
4.0
 40
4.0
 40
5.0
 40
5.0
 40
5.0
 40
6.0
 40
6.0
 40
6.0
 40
7.0
 40
7.0
 40
7.0
 40
8.0
 40
8.0
 40
8.0
 40
9.0
 40
9.0
 40
9.0
 40
10.0
 40
10.0
 40
10.0
 40
11.0
 40
11.0
 40
11.0
 40
12.0
 40
12.0
 40
12.0
 40
12.0
 10
2.36004638671875
 20
-2.603291829427083
 30
0.0
 10
2.356418185763889
 20
-2.603291829427083
 30
0.0
 10
2.352728949652778
 20
-2.603495279947917
 30
0.0
 10
2.348944769965278
 20
-2.603888617621528
 30
0.0
 10
2.345160590277778
 20
-2.604288736979167
 30
0.0
 10
2.341722276475694
 20
-2.605048285590278
 30
0.0
 10
2.338616265190972
 20
-2.606174045138889
 30
0.0
 10
2.335517035590278
 20
-2.607306586371528
 30
0.0
 10
2.332967122395833
 20
-2.608879937065972
 30
0.0
 10
2.331000434027778
 20
-2.610914442274305
 30
0.0
 10
2.329026963975694
 20
-2.612948947482639
 30
0.0
 10
2.328036838107639
 20
-2.615546332465278
 30
0.0
 10
2.328036838107639
 20
-2.618699815538194
 30
0.0
 10
2.328036838107639
 20
-2.623331705729167
 30
0.0
 10
2.32958984375
 20
-2.626661512586805
 30
0.0
 10
2.332695855034722
 20
-2.628696017795139
 30
0.0
 10
2.335801866319444
 20
-2.630730523003472
 30
0.0
 10
2.339999728732639
 20
-2.631747775607639
 30
0.0
 10
2.345303005642361
 20
-2.631747775607639
 30
0.0
 10
2.349494086371528
 20
-2.631747775607639
 30
0.0
 10
2.353040907118055
 20
-2.631035698784722
 30
0.0
 10
2.355977376302083
 20
-2.629625108506944
 30
0.0
 10
2.358913845486111
 20
-2.628207736545139
 30
0.0
 10
2.361280653211805
 20
-2.626376681857639
 30
0.0
 10
2.363091362847222
 20
-2.624118381076389
 30
0.0
 10
2.364895290798611
 20
-2.621860080295139
 30
0.0
 10
2.366183810763889
 20
-2.619357638888889
 30
0.0
 10
2.366977267795139
 20
-2.616590711805555
 30
0.0
 10
2.367763943142361
 20
-2.613817003038194
 30
0.0
 10
2.3681640625
 20
-2.611083984375
 30
0.0
 10
2.3681640625
 20
-2.608371310763889
 30
0.0
 10
2.3681640625
 20
-2.608371310763889
 30
0.0
 10
2.3681640625
 20
-2.603291829427083
 30
0.0
 10
2.3681640625
 20
-2.603291829427083
 30
0.0
 10
2.3681640625
 20
-2.603291829427083
 30
0.0
 10
2.36004638671875
 20
-2.603291829427083
 30
0.0
 10
2.36004638671875
 20
-2.603291829427083
 30
0.0
  0
POLYLINE
  5
B6
330
7B
100
AcDbEntity
  8
Layer 1
 62
     1
370
    18
100
AcDb2dPolyline
 66
     1
 10
0.0
 20
0.0
 30
0.0
  0
VERTEX
  5
B7
330
B6
100
AcDbEntity
  8
Layer 1
 62
     1
370
    18
100
AcDbVertex
100
AcDb2dVertex
 10
2.404581705729167
 20
-2.513888888888889
 30
0.0
  0
VERTEX
  5
B8
330
B6
100
AcDbEntity
  8
Layer 1
 62
     1
370
    18
100
AcDbVertex
100
AcDb2dVertex
 10
2.419820149739583
 20
-2.513888888888889
 30
0.0
  0
VERTEX
  5
B9
330
B6
100
AcDbEntity
  8
Layer 1
 62
     1
370
    18
100
AcDbVertex
100
AcDb2dVertex
 10
2.419820149739583
 20
-2.596516927083333
 30
0.0
  0
VERTEX
  5
BA
330
B6
100
AcDbEntity
  8
Layer 1
 62
     1
370
    18
100
AcDbVertex
100
AcDb2dVertex
 10
2.454359266493055
 20
-2.561808268229167
 30
0.0
  0
VERTEX
  5
BB
330
B6
100
AcDbEntity
  8
Layer 1
 62
     1
370
    18
100
AcDbVertex
100
AcDb2dVertex
 10
2.47552490234375
 20
-2.561808268229167
 30
0.0
  0
VERTEX
  5
BC
330
B6
100
AcDbEntity
  8
Layer 1
 62
     1
370
    18
100
AcDbVertex
100
AcDb2dVertex
 10
2.4381103515625
 20
-2.598219129774305
 30
0.0
  0
VERTEX
  5
BD
330
B6
100
AcDbEntity
  8
Layer 1
 62
     1
370
    18
100
AcDbVertex
100
AcDb2dVertex
 10
2.478746202256944
 20
-2.641899956597222
 30
0.0
  0
VERTEX
  5
BE
330
B6
100
AcDbEntity
  8
Layer 1
 62
     1
370
    18
100
AcDbVertex
100
AcDb2dVertex
 10
2.457078721788194
 20
-2.641899956597222
 30
0.0
  0
VERTEX
  5
BF
330
B6
100
AcDbEntity
  8
Layer 1
 62
     1
370
    18
100
AcDbVertex
100
AcDb2dVertex
 10
2.419820149739583
 20
-2.600246853298611
 30
0.0
  0
VERTEX
  5
C0
330
B6
100
AcDbEntity
  8
Layer 1
 62
     1
370
    18
100
AcDbVertex
100
AcDb2dVertex
 10
2.419820149739583
 20
-2.641899956597222
 30
0.0
  0
VERTEX
  5
C1
330
B6
100
AcDbEntity
  8
Layer 1
 62
     1
370
    18
100
AcDbVertex
100
AcDb2dVertex
 10
2.404581705729167
 20
-2.641899956597222
 30
0.0
  0
VERTEX
  5
C2
330
B6
100
AcDbEntity
  8
Layer 1
 62
     1
370
    18
100
AcDbVertex
100
AcDb2dVertex
 10
2.404581705729167
 20
-2.513888888888889
 30
0.0
  0
SEQEND
  5
C3
330
B6
100
AcDbEntity
  8
Layer 1
370
    18
  0
SPLINE
  5
C4
330
7B
100
AcDbEntity
  8
Layer 1
 62
     1
370
    18
100
AcDbSpline
210
0.0
220
0.0
230
1.0
 70
    11
 71
     3
 72
    71
 73
    67
 74
     0
 42
0.0000000001
 43
0.0000000001
 40
0.0
 40
0.0
 40
0.0
 40
0.0
 40
1.0
 40
1.0
 40
1.0
 40
2.0
 40
2.0
 40
2.0
 40
3.0
 40
3.0
 40
3.0
 40
4.0
 40
4.0
 40
4.0
 40
5.0
 40
5.0
 40
5.0
 40
6.0
 40
6.0
 40
6.0
 40
7.0
 40
7.0
 40
7.0
 40
8.0
 40
8.0
 40
8.0
 40
9.0
 40
9.0
 40
9.0
 40
10.0
 40
10.0
 40
10.0
 40
11.0
 40
11.0
 40
11.0
 40
12.0
 40
12.0
 40
12.0
 40
13.0
 40
13.0
 40
13.0
 40
14.0
 40
14.0
 40
14.0
 40
15.0
 40
15.0
 40
15.0
 40
16.0
 40
16.0
 40
16.0
 40
17.0
 40
17.0
 40
17.0
 40
18.0
 40
18.0
 40
18.0
 40
19.0
 40
19.0
 40
19.0
 40
20.0
 40
20.0
 40
20.0
 40
21.0
 40
21.0
 40
21.0
 40
22.0
 40
22.0
 40
22.0
 40
22.0
 10
2.50396728515625
 20
-2.607354058159722
 30
0.0
 10
2.50396728515625
 20
-2.610853407118055
 30
0.0
 10
2.504733615451389
 20
-2.614047580295139
 30
0.0
 10
2.506259494357639
 20
-2.616923014322917
 30
0.0
 10
2.507778591579861
 20
-2.619805230034722
 30
0.0
 10
2.509792751736111
 20
-2.622260199652778
 30
0.0
 10
2.512261284722222
 20
-2.624294704861111
 30
0.0
 10
2.514750162760417
 20
-2.626322428385417
 30
0.0
 10
2.517632378472222
 20
-2.627902560763889
 30
0.0
 10
2.520907931857639
 20
-2.629035101996528
 30
0.0
 10
2.524169921875
 20
-2.630160861545139
 30
0.0
 10
2.527567545572917
 20
-2.630730523003472
 30
0.0
 10
2.531060112847222
 20
-2.630730523003472
 30
0.0
 10
2.535807291666667
 20
-2.630730523003472
 30
0.0
 10
2.539930555555555
 20
-2.629625108506944
 30
0.0
 10
2.543429904513889
 20
-2.627421061197917
 30
0.0
 10
2.546922471788194
 20
-2.625217013888889
 30
0.0
 10
2.550143771701389
 20
-2.622314453125
 30
0.0
 10
2.553073459201389
 20
-2.618699815538194
 30
0.0
 10
2.553073459201389
 20
-2.618699815538194
 30
0.0
 10
2.564595540364583
 20
-2.627509223090278
 30
0.0
 10
2.564595540364583
 20
-2.627509223090278
 30
0.0
 10
2.556125217013889
 20
-2.638461642795139
 30
0.0
 10
2.544277615017361
 20
-2.643934461805555
 30
0.0
 10
2.529032389322917
 20
-2.643934461805555
 30
0.0
 10
2.522705078125
 20
-2.643934461805555
 30
0.0
 10
2.516981336805555
 20
-2.642856174045139
 30
0.0
 10
2.511847601996528
 20
-2.640719943576389
 30
0.0
 10
2.5067138671875
 20
-2.638570149739583
 30
0.0
 10
2.502360026041667
 20
-2.635613335503472
 30
0.0
 10
2.498806423611111
 20
-2.631829155815972
 30
0.0
 10
2.495252821180555
 20
-2.628044976128472
 30
0.0
 10
2.492506239149305
 20
-2.623589409722222
 30
0.0
 10
2.490593804253472
 20
-2.618448893229167
 30
0.0
 10
2.488667805989583
 20
-2.613315158420139
 30
0.0
 10
2.487718370225694
 20
-2.607760959201389
 30
0.0
 10
2.487718370225694
 20
-2.601765950520833
 30
0.0
 10
2.487718370225694
 20
-2.595784505208333
 30
0.0
 10
2.488755967881944
 20
-2.590230305989583
 30
0.0
 10
2.490858289930555
 20
-2.585089789496528
 30
0.0
 10
2.492940266927083
 20
-2.5799560546875
 30
0.0
 10
2.495815700954861
 20
-2.57550048828125
 30
0.0
 10
2.499484592013889
 20
-2.57171630859375
 30
0.0
 10
2.503146701388889
 20
-2.56793212890625
 30
0.0
 10
2.507534450954861
 20
-2.564975314670139
 30
0.0
 10
2.512607150607639
 20
-2.562825520833333
 30
0.0
 10
2.517686631944444
 20
-2.560682508680555
 30
0.0
 10
2.523227267795139
 20
-2.559611002604167
 30
0.0
 10
2.529208713107639
 20
-2.559611002604167
 30
0.0
 10
2.536322699652778
 20
-2.559611002604167
 30
0.0
 10
2.542331271701389
 20
-2.56085205078125
 30
0.0
 10
2.547234429253472
 20
-2.563334147135417
 30
0.0
 10
2.552151150173611
 20
-2.565816243489583
 30
0.0
 10
2.556179470486111
 20
-2.569064670138889
 30
0.0
 10
2.559346516927083
 20
-2.573065863715278
 30
0.0
 10
2.562513563368055
 20
-2.577080620659722
 30
0.0
 10
2.564792209201389
 20
-2.581597222222222
 30
0.0
 10
2.566202799479167
 20
-2.58660888671875
 30
0.0
 10
2.567613389756944
 20
-2.591640896267361
 30
0.0
 10
2.568318684895833
 20
-2.596754286024305
 30
0.0
 10
2.568318684895833
 20
-2.601942274305555
 30
0.0
 10
2.568318684895833
 20
-2.601942274305555
 30
0.0
 10
2.568318684895833
 20
-2.607354058159722
 30
0.0
 10
2.568318684895833
 20
-2.607354058159722
 30
0.0
 10
2.568318684895833
 20
-2.607354058159722
 30
0.0
 10
2.50396728515625
 20
-2.607354058159722
 30
0.0
 10
2.50396728515625
 20
-2.607354058159722
 30
0.0
  0
SPLINE
  5
C5
330
7B
100
AcDbEntity
  8
Layer 1
 62
     1
370
    18
100
AcDbSpline
210
0.0
220
0.0
230
1.0
 70
    11
 71
     3
 72
    32
 73
    28
 74
     0
 42
0.0000000001
 43
0.0000000001
 40
0.0
 40
0.0
 40
0.0
 40
0.0
 40
1.0
 40
1.0
 40
1.0
 40
2.0
 40
2.0
 40
2.0
 40
3.0
 40
3.0
 40
3.0
 40
4.0
 40
4.0
 40
4.0
 40
5.0
 40
5.0
 40
5.0
 40
6.0
 40
6.0
 40
6.0
 40
7.0
 40
7.0
 40
7.0
 40
8.0
 40
8.0
 40
8.0
 40
9.0
 40
9.0
 40
9.0
 40
9.0
 10
2.552069769965278
 20
-2.595174153645833
 30
0.0
 10
2.551947699652778
 20
-2.591783311631944
 30
0.0
 10
2.551405164930555
 20
-2.588677300347222
 30
0.0
 10
2.550455729166667
 20
-2.585856119791667
 30
0.0
 10
2.549492730034722
 20
-2.583028157552083
 30
0.0
 10
2.548055013020833
 20
-2.580573187934028
 30
0.0
 10
2.546142578125
 20
-2.5784912109375
 30
0.0
 10
2.544216579861111
 20
-2.576395670572917
 30
0.0
 10
2.541815863715278
 20
-2.57476806640625
 30
0.0
 10
2.5389404296875
 20
-2.573581271701389
 30
0.0
 10
2.536064995659722
 20
-2.5723876953125
 30
0.0
 10
2.532701280381944
 20
-2.571797688802083
 30
0.0
 10
2.528862847222222
 20
-2.571797688802083
 30
0.0
 10
2.525139702690972
 20
-2.571797688802083
 30
0.0
 10
2.521728515625
 20
-2.572509765625
 30
0.0
 10
2.518622504340278
 20
-2.57391357421875
 30
0.0
 10
2.515516493055555
 20
-2.575324164496528
 30
0.0
 10
2.512885199652778
 20
-2.577162000868055
 30
0.0
 10
2.5107421875
 20
-2.579413519965278
 30
0.0
 10
2.508599175347222
 20
-2.581685384114583
 30
0.0
 10
2.506930881076389
 20
-2.584187825520833
 30
0.0
 10
2.505750868055555
 20
-2.586954752604167
 30
0.0
 10
2.504570855034722
 20
-2.5897216796875
 30
0.0
 10
2.50396728515625
 20
-2.592461480034722
 30
0.0
 10
2.50396728515625
 20
-2.595174153645833
 30
0.0
 10
2.50396728515625
 20
-2.595174153645833
 30
0.0
 10
2.552069769965278
 20
-2.595174153645833
 30
0.0
 10
2.552069769965278
 20
-2.595174153645833
 30
0.0
  0
SPLINE
  5
C6
330
7B
100
AcDbEntity
  8
Layer 1
 62
     1
370
    18
100
AcDbSpline
210
0.0
220
0.0
230
1.0
 70
    11
 71
     3
 72
    53
 73
    49
 74
     0
 42
0.0000000001
 43
0.0000000001
 40
0.0
 40
0.0
 40
0.0
 40
0.0
 40
1.0
 40
1.0
 40
1.0
 40
2.0
 40
2.0
 40
2.0
 40
3.0
 40
3.0
 40
3.0
 40
4.0
 40
4.0
 40
4.0
 40
5.0
 40
5.0
 40
5.0
 40
6.0
 40
6.0
 40
6.0
 40
7.0
 40
7.0
 40
7.0
 40
8.0
 40
8.0
 40
8.0
 40
9.0
 40
9.0
 40
9.0
 40
10.0
 40
10.0
 40
10.0
 40
11.0
 40
11.0
 40
11.0
 40
12.0
 40
12.0
 40
12.0
 40
13.0
 40
13.0
 40
13.0
 40
14.0
 40
14.0
 40
14.0
 40
15.0
 40
15.0
 40
15.0
 40
16.0
 40
16.0
 40
16.0
 40
16.0
 10
2.58660888671875
 20
-2.561638726128472
 30
0.0
 10
2.58660888671875
 20
-2.561638726128472
 30
0.0
 10
2.601854112413194
 20
-2.561638726128472
 30
0.0
 10
2.601854112413194
 20
-2.561638726128472
 30
0.0
 10
2.601854112413194
 20
-2.561638726128472
 30
0.0
 10
2.601854112413194
 20
-2.574001736111111
 30
0.0
 10
2.601854112413194
 20
-2.574001736111111
 30
0.0
 10
2.601854112413194
 20
-2.574001736111111
 30
0.0
 10
2.602179633246528
 20
-2.574001736111111
 30
0.0
 10
2.602179633246528
 20
-2.574001736111111
 30
0.0
 10
2.603196885850694
 20
-2.571858723958333
 30
0.0
 10
2.60455322265625
 20
-2.569912380642361
 30
0.0
 10
2.606248643663194
 20
-2.568155924479167
 30
0.0
 10
2.607944064670139
 20
-2.56640625
 30
0.0
 10
2.609829372829861
 20
-2.564914279513889
 30
0.0
 10
2.611931694878472
 20
-2.563673231336805
 30
0.0
 10
2.614013671875
 20
-2.562425401475694
 30
0.0
 10
2.616299099392361
 20
-2.561442057291667
 30
0.0
 10
2.6187744140625
 20
-2.560709635416667
 30
0.0
 10
2.621263292100694
 20
-2.559977213541667
 30
0.0
 10
2.623745388454861
 20
-2.559611002604167
 30
0.0
 10
2.626241048177083
 20
-2.559611002604167
 30
0.0
 10
2.628709581163194
 20
-2.559611002604167
 30
0.0
 10
2.630967881944444
 20
-2.559943305121528
 30
0.0
 10
2.633009168836805
 20
-2.560621473524305
 30
0.0
 10
2.633009168836805
 20
-2.560621473524305
 30
0.0
 10
2.632331000434028
 20
-2.577046712239583
 30
0.0
 10
2.632331000434028
 20
-2.577046712239583
 30
0.0
 10
2.631083170572917
 20
-2.576707628038194
 30
0.0
 10
2.629842122395833
 20
-2.576422797309028
 30
0.0
 10
2.628594292534722
 20
-2.576205783420139
 30
0.0
 10
2.627360026041667
 20
-2.575981987847222
 30
0.0
 10
2.626125759548611
 20
-2.57586669921875
 30
0.0
 10
2.624871148003472
 20
-2.57586669921875
 30
0.0
 10
2.617424858940972
 20
-2.57586669921875
 30
0.0
 10
2.611728244357639
 20
-2.577948676215278
 30
0.0
 10
2.607774522569444
 20
-2.582126193576389
 30
0.0
 10
2.60382080078125
 20
-2.5863037109375
 30
0.0
 10
2.601854112413194
 20
-2.592793782552083
 30
0.0
 10
2.601854112413194
 20
-2.601603190104167
 30
0.0
 10
2.601854112413194
 20
-2.601603190104167
 30
0.0
 10
2.601854112413194
 20
-2.641899956597222
 30
0.0
 10
2.601854112413194
 20
-2.641899956597222
 30
0.0
 10
2.601854112413194
 20
-2.641899956597222
 30
0.0
 10
2.58660888671875
 20
-2.641899956597222
 30
0.0
 10
2.58660888671875
 20
-2.641899956597222
 30
0.0
 10
2.58660888671875
 20
-2.641899956597222
 30
0.0
 10
2.58660888671875
 20
-2.561638726128472
 30
0.0
 10
2.58660888671875
 20
-2.561638726128472
 30
0.0
  0
SPLINE
  5
C7
330
7B
100
AcDbEntity
  8
Layer 1
 62
     1
370
    18
100
AcDbSpline
210
0.0
220
0.0
230
1.0
 70
    11
 71
     3
 72
   125
 73
   121
 74
     0
 42
0.0000000001
 43
0.0000000001
 40
0.0
 40
0.0
 40
0.0
 40
0.0
 40
1.0
 40
1.0
 40
1.0
 40
2.0
 40
2.0
 40
2.0
 40
3.0
 40
3.0
 40
3.0
 40
4.0
 40
4.0
 40
4.0
 40
5.0
 40
5.0
 40
5.0
 40
6.0
 40
6.0
 40
6.0
 40
7.0
 40
7.0
 40
7.0
 40
8.0
 40
8.0
 40
8.0
 40
9.0
 40
9.0
 40
9.0
 40
10.0
 40
10.0
 40
10.0
 40
11.0
 40
11.0
 40
11.0
 40
12.0
 40
12.0
 40
12.0
 40
13.0
 40
13.0
 40
13.0
 40
14.0
 40
14.0
 40
14.0
 40
15.0
 40
15.0
 40
15.0
 40
16.0
 40
16.0
 40
16.0
 40
17.0
 40
17.0
 40
17.0
 40
18.0
 40
18.0
 40
18.0
 40
19.0
 40
19.0
 40
19.0
 40
20.0
 40
20.0
 40
20.0
 40
21.0
 40
21.0
 40
21.0
 40
22.0
 40
22.0
 40
22.0
 40
23.0
 40
23.0
 40
23.0
 40
24.0
 40
24.0
 40
24.0
 40
25.0
 40
25.0
 40
25.0
 40
26.0
 40
26.0
 40
26.0
 40
27.0
 40
27.0
 40
27.0
 40
28.0
 40
28.0
 40
28.0
 40
29.0
 40
29.0
 40
29.0
 40
30.0
 40
30.0
 40
30.0
 40
31.0
 40
31.0
 40
31.0
 40
32.0
 40
32.0
 40
32.0
 40
33.0
 40
33.0
 40
33.0
 40
34.0
 40
34.0
 40
34.0
 40
35.0
 40
35.0
 40
35.0
 40
36.0
 40
36.0
 40
36.0
 40
37.0
 40
37.0
 40
37.0
 40
38.0
 40
38.0
 40
38.0
 40
39.0
 40
39.0
 40
39.0
 40
40.0
 40
40.0
 40
40.0
 40
40.0
 10
2.691935221354167
 20
-2.581787109375
 30
0.0
 10
2.69012451171875
 20
-2.57952880859375
 30
0.0
 10
2.687900119357639
 20
-2.57763671875
 30
0.0
 10
2.68524169921875
 20
-2.576117621527778
 30
0.0
 10
2.682590060763889
 20
-2.574591742621528
 30
0.0
 10
2.679341634114583
 20
-2.573832194010417
 30
0.0
 10
2.675503200954861
 20
-2.573832194010417
 30
0.0
 10
2.671895345052083
 20
-2.573832194010417
 30
0.0
 10
2.66876220703125
 20
-2.574591742621528
 30
0.0
 10
2.666110568576389
 20
-2.576117621527778
 30
0.0
 10
2.6634521484375
 20
-2.57763671875
 30
0.0
 10
2.662129720052083
 20
-2.579867892795139
 30
0.0
 10
2.662129720052083
 20
-2.582804361979167
 30
0.0
 10
2.662129720052083
 20
-2.585177951388889
 30
0.0
 10
2.662889268663194
 20
-2.58709716796875
 30
0.0
 10
2.664415147569444
 20
-2.58856201171875
 30
0.0
 10
2.665934244791667
 20
-2.59002685546875
 30
0.0
 10
2.667738172743055
 20
-2.591213650173611
 30
0.0
 10
2.669840494791667
 20
-2.592122395833333
 30
0.0
 10
2.671922471788194
 20
-2.593024359809028
 30
0.0
 10
2.674153645833333
 20
-2.593702528211805
 30
0.0
 10
2.676520453559028
 20
-2.594150119357639
 30
0.0
 10
2.67889404296875
 20
-2.5946044921875
 30
0.0
 10
2.680921766493055
 20
-2.594997829861111
 30
0.0
 10
2.6826171875
 20
-2.5953369140625
 30
0.0
 10
2.685885959201389
 20
-2.59613037109375
 30
0.0
 10
2.68896484375
 20
-2.597086588541667
 30
0.0
 10
2.691853841145833
 20
-2.598219129774305
 30
0.0
 10
2.694722493489583
 20
-2.599344889322917
 30
0.0
 10
2.69720458984375
 20
-2.600809733072917
 30
0.0
 10
2.699300130208333
 20
-2.602620442708333
 30
0.0
 10
2.701382107204861
 20
-2.604424370659722
 30
0.0
 10
2.703023274739583
 20
-2.606621636284722
 30
0.0
 10
2.704203287760417
 20
-2.609219021267361
 30
0.0
 10
2.705396864149305
 20
-2.61181640625
 30
0.0
 10
2.705986870659722
 20
-2.614976671006944
 30
0.0
 10
2.705986870659722
 20
-2.618699815538194
 30
0.0
 10
2.705986870659722
 20
-2.623223198784722
 30
0.0
 10
2.705023871527778
 20
-2.627088758680555
 30
0.0
 10
2.703111436631944
 20
-2.630303276909722
 30
0.0
 10
2.701185438368055
 20
-2.633517795138889
 30
0.0
 10
2.698710123697917
 20
-2.636142306857639
 30
0.0
 10
2.695658365885417
 20
-2.638176812065972
 30
0.0
 10
2.692613389756944
 20
-2.640204535590278
 30
0.0
 10
2.689134385850694
 20
-2.641676161024305
 30
0.0
 10
2.68524169921875
 20
-2.642578125
 30
0.0
 10
2.681355794270833
 20
-2.643486870659722
 30
0.0
 10
2.67742919921875
 20
-2.643934461805555
 30
0.0
 10
2.673475477430555
 20
-2.643934461805555
 30
0.0
 10
2.666815863715278
 20
-2.643934461805555
 30
0.0
 10
2.660963270399305
 20
-2.642917209201389
 30
0.0
 10
2.65594482421875
 20
-2.640889485677083
 30
0.0
 10
2.650926378038194
 20
-2.63885498046875
 30
0.0
 10
2.646443684895833
 20
-2.635125054253472
 30
0.0
 10
2.642483181423611
 20
-2.629713270399305
 30
0.0
 10
2.642483181423611
 20
-2.629713270399305
 30
0.0
 10
2.654005262586805
 20
-2.620225694444444
 30
0.0
 10
2.654005262586805
 20
-2.620225694444444
 30
0.0
 10
2.656473795572917
 20
-2.622714572482639
 30
0.0
 10
2.659254286024305
 20
-2.624911838107639
 30
0.0
 10
2.662299262152778
 20
-2.6268310546875
 30
0.0
 10
2.665351019965278
 20
-2.628757052951389
 30
0.0
 10
2.669074164496528
 20
-2.629713270399305
 30
0.0
 10
2.673475477430555
 20
-2.629713270399305
 30
0.0
 10
2.675387912326389
 20
-2.629713270399305
 30
0.0
 10
2.677341037326389
 20
-2.629509819878472
 30
0.0
 10
2.679314507378472
 20
-2.629123263888889
 30
0.0
 10
2.681294759114583
 20
-2.62872314453125
 30
0.0
 10
2.683037651909722
 20
-2.628106011284722
 30
0.0
 10
2.684563530815972
 20
-2.627251519097222
 30
0.0
 10
2.686082628038194
 20
-2.626410590277778
 30
0.0
 10
2.687337239583333
 20
-2.625339084201389
 30
0.0
 10
2.688286675347222
 20
-2.624037000868055
 30
0.0
 10
2.689249674479167
 20
-2.62274169921875
 30
0.0
 10
2.689724392361111
 20
-2.621249728732639
 30
0.0
 10
2.689724392361111
 20
-2.619547526041667
 30
0.0
 10
2.689724392361111
 20
-2.617289225260417
 30
0.0
 10
2.689019097222222
 20
-2.615431043836805
 30
0.0
 10
2.687608506944444
 20
-2.613966200086805
 30
0.0
 10
2.686197916666667
 20
-2.612494574652778
 30
0.0
 10
2.684502495659722
 20
-2.611341688368055
 30
0.0
 10
2.682535807291667
 20
-2.610487196180555
 30
0.0
 10
2.680562337239583
 20
-2.609639485677083
 30
0.0
 10
2.678466796875
 20
-2.608968098958333
 30
0.0
 10
2.676262749565972
 20
-2.608452690972222
 30
0.0
 10
2.674065483940972
 20
-2.607950846354167
 30
0.0
 10
2.672119140625
 20
-2.607530381944444
 30
0.0
 10
2.670430501302083
 20
-2.607191297743055
 30
0.0
 10
2.667148166232639
 20
-2.606404622395833
 30
0.0
 10
2.664042154947917
 20
-2.605495876736111
 30
0.0
 10
2.661112467447917
 20
-2.604478624131944
 30
0.0
 10
2.658175998263889
 20
-2.603468153211805
 30
0.0
 10
2.655585394965278
 20
-2.602105034722222
 30
0.0
 10
2.653327094184028
 20
-2.600423177083333
 30
0.0
 10
2.651068793402778
 20
-2.598720974392361
 30
0.0
 10
2.649258083767361
 20
-2.596577962239583
 30
0.0
 10
2.647908528645833
 20
-2.593980577256944
 30
0.0
 10
2.646552191840278
 20
-2.591389973958333
 30
0.0
 10
2.645867241753472
 20
-2.588168674045139
 30
0.0
 10
2.645867241753472
 20
-2.584330240885417
 30
0.0
 10
2.645867241753472
 20
-2.580159505208333
 30
0.0
 10
2.646742078993055
 20
-2.576510959201389
 30
0.0
 10
2.64849853515625
 20
-2.573404947916667
 30
0.0
 10
2.650254991319444
 20
-2.570305718315972
 30
0.0
 10
2.652567545572917
 20
-2.567728678385417
 30
0.0
 10
2.655442979600694
 20
-2.565707736545139
 30
0.0
 10
2.658318413628472
 20
-2.563673231336805
 30
0.0
 10
2.661600748697917
 20
-2.562147352430555
 30
0.0
 10
2.665262858072917
 20
-2.561136881510417
 30
0.0
 10
2.668931749131944
 20
-2.560112847222222
 30
0.0
 10
2.672627766927083
 20
-2.559611002604167
 30
0.0
 10
2.676350911458333
 20
-2.559611002604167
 30
0.0
 10
2.681769476996528
 20
-2.559611002604167
 30
0.0
 10
2.686964246961805
 20
-2.560621473524305
 30
0.0
 10
2.691935221354167
 20
-2.562655978732639
 30
0.0
 10
2.6968994140625
 20
-2.564683702256944
 30
0.0
 10
2.700853135850694
 20
-2.568074544270833
 30
0.0
 10
2.703789605034722
 20
-2.57281494140625
 30
0.0
 10
2.703789605034722
 20
-2.57281494140625
 30
0.0
 10
2.691935221354167
 20
-2.581787109375
 30
0.0
 10
2.691935221354167
 20
-2.581787109375
 30
0.0
  0
SPLINE
  5
C8
330
7B
100
AcDbEntity
  8
Layer 1
 62
     1
370
    18
100
AcDbSpline
210
0.0
220
0.0
230
1.0
 70
    11
 71
     3
 72
    62
 73
    58
 74
     0
 42
0.0000000001
 43
0.0000000001
 40
0.0
 40
0.0
 40
0.0
 40
0.0
 40
1.0
 40
1.0
 40
1.0
 40
2.0
 40
2.0
 40
2.0
 40
3.0
 40
3.0
 40
3.0
 40
4.0
 40
4.0
 40
4.0
 40
5.0
 40
5.0
 40
5.0
 40
6.0
 40
6.0
 40
6.0
 40
7.0
 40
7.0
 40
7.0
 40
8.0
 40
8.0
 40
8.0
 40
9.0
 40
9.0
 40
9.0
 40
10.0
 40
10.0
 40
10.0
 40
11.0
 40
11.0
 40
11.0
 40
12.0
 40
12.0
 40
12.0
 40
13.0
 40
13.0
 40
13.0
 40
14.0
 40
14.0
 40
14.0
 40
15.0
 40
15.0
 40
15.0
 40
16.0
 40
16.0
 40
16.0
 40
17.0
 40
17.0
 40
17.0
 40
18.0
 40
18.0
 40
18.0
 40
19.0
 40
19.0
 40
19.0
 40
19.0
 10
2.724446614583333
 20
-2.561638726128472
 30
0.0
 10
2.724446614583333
 20
-2.561638726128472
 30
0.0
 10
2.739678276909722
 20
-2.561638726128472
 30
0.0
 10
2.739678276909722
 20
-2.561638726128472
 30
0.0
 10
2.739678276909722
 20
-2.561638726128472
 30
0.0
 10
2.739678276909722
 20
-2.573154025607639
 30
0.0
 10
2.739678276909722
 20
-2.573154025607639
 30
0.0
 10
2.739678276909722
 20
-2.573154025607639
 30
0.0
 10
2.740024142795139
 20
-2.573154025607639
 30
0.0
 10
2.740024142795139
 20
-2.573154025607639
 30
0.0
 10
2.742953830295139
 20
-2.568861219618055
 30
0.0
 10
2.746995713975694
 20
-2.565531412760417
 30
0.0
 10
2.752129448784722
 20
-2.563157823350694
 30
0.0
 10
2.75726318359375
 20
-2.560791015625
 30
0.0
 10
2.762539333767361
 20
-2.559611002604167
 30
0.0
 10
2.767957899305555
 20
-2.559611002604167
 30
0.0
 10
2.774176703559028
 20
-2.559611002604167
 30
0.0
 10
2.779778374565972
 20
-2.560682508680555
 30
0.0
 10
2.784817165798611
 20
-2.562825520833333
 30
0.0
 10
2.789828830295139
 20
-2.564975314670139
 30
0.0
 10
2.794121636284722
 20
-2.567966037326389
 30
0.0
 10
2.797682020399305
 20
-2.571797688802083
 30
0.0
 10
2.801235622829861
 20
-2.575636121961805
 30
0.0
 10
2.803968641493055
 20
-2.580125596788194
 30
0.0
 10
2.805894639756944
 20
-2.58526611328125
 30
0.0
 10
2.807807074652778
 20
-2.590399848090278
 30
0.0
 10
2.808770073784722
 20
-2.595906575520833
 30
0.0
 10
2.808770073784722
 20
-2.601765950520833
 30
0.0
 10
2.808770073784722
 20
-2.607760959201389
 30
0.0
 10
2.807807074652778
 20
-2.613315158420139
 30
0.0
 10
2.805894639756944
 20
-2.618448893229167
 30
0.0
 10
2.803968641493055
 20
-2.623589409722222
 30
0.0
 10
2.801235622829861
 20
-2.628044976128472
 30
0.0
 10
2.797682020399305
 20
-2.631829155815972
 30
0.0
 10
2.794121636284722
 20
-2.635613335503472
 30
0.0
 10
2.789828830295139
 20
-2.638570149739583
 30
0.0
 10
2.784817165798611
 20
-2.640719943576389
 30
0.0
 10
2.779778374565972
 20
-2.642856174045139
 30
0.0
 10
2.774176703559028
 20
-2.643934461805555
 30
0.0
 10
2.767957899305555
 20
-2.643934461805555
 30
0.0
 10
2.76220703125
 20
-2.643934461805555
 30
0.0
 10
2.756788465711805
 20
-2.642720540364583
 30
0.0
 10
2.751702202690972
 20
-2.640292697482639
 30
0.0
 10
2.746622721354167
 20
-2.637871636284722
 30
0.0
 10
2.742730034722222
 20
-2.634568956163194
 30
0.0
 10
2.740024142795139
 20
-2.630384657118055
 30
0.0
 10
2.740024142795139
 20
-2.630384657118055
 30
0.0
 10
2.739678276909722
 20
-2.630384657118055
 30
0.0
 10
2.739678276909722
 20
-2.630384657118055
 30
0.0
 10
2.739678276909722
 20
-2.630384657118055
 30
0.0
 10
2.739678276909722
 20
-2.689656575520833
 30
0.0
 10
2.739678276909722
 20
-2.689656575520833
 30
0.0
 10
2.739678276909722
 20
-2.689656575520833
 30
0.0
 10
2.724446614583333
 20
-2.689656575520833
 30
0.0
 10
2.724446614583333
 20
-2.689656575520833
 30
0.0
 10
2.724446614583333
 20
-2.689656575520833
 30
0.0
 10
2.724446614583333
 20
-2.561638726128472
 30
0.0
 10
2.724446614583333
 20
-2.561638726128472
 30
0.0
  0
SPLINE
  5
C9
330
7B
100
AcDbEntity
  8
Layer 1
 62
     1
370
    18
100
AcDbSpline
210
0.0
220
0.0
230
1.0
 70
    11
 71
     3
 72
    53
 73
    49
 74
     0
 42
0.0000000001
 43
0.0000000001
 40
0.0
 40
0.0
 40
0.0
 40
0.0
 40
1.0
 40
1.0
 40
1.0
 40
2.0
 40
2.0
 40
2.0
 40
3.0
 40
3.0
 40
3.0
 40
4.0
 40
4.0
 40
4.0
 40
5.0
 40
5.0
 40
5.0
 40
6.0
 40
6.0
 40
6.0
 40
7.0
 40
7.0
 40
7.0
 40
8.0
 40
8.0
 40
8.0
 40
9.0
 40
9.0
 40
9.0
 40
10.0
 40
10.0
 40
10.0
 40
11.0
 40
11.0
 40
11.0
 40
12.0
 40
12.0
 40
12.0
 40
13.0
 40
13.0
 40
13.0
 40
14.0
 40
14.0
 40
14.0
 40
15.0
 40
15.0
 40
15.0
 40
16.0
 40
16.0
 40
16.0
 40
16.0
 10
2.766092936197917
 20
-2.573832194010417
 30
0.0
 10
2.762037489149305
 20
-2.573832194010417
 30
0.0
 10
2.758368598090278
 20
-2.574537489149305
 30
0.0
 10
2.755093044704861
 20
-2.575948079427083
 30
0.0
 10
2.751810709635417
 20
-2.577358669704861
 30
0.0
 10
2.749050564236111
 20
-2.57928466796875
 30
0.0
 10
2.746799045138889
 20
-2.581705729166667
 30
0.0
 10
2.744540744357639
 20
-2.584133572048611
 30
0.0
 10
2.742784288194444
 20
-2.587070041232639
 30
0.0
 10
2.741550021701389
 20
-2.59051513671875
 30
0.0
 10
2.74029541015625
 20
-2.593953450520833
 30
0.0
 10
2.739678276909722
 20
-2.597710503472222
 30
0.0
 10
2.739678276909722
 20
-2.601765950520833
 30
0.0
 10
2.739678276909722
 20
-2.6058349609375
 30
0.0
 10
2.74029541015625
 20
-2.609592013888889
 30
0.0
 10
2.741550021701389
 20
-2.613030327690972
 30
0.0
 10
2.742784288194444
 20
-2.616475423177083
 30
0.0
 10
2.744540744357639
 20
-2.619411892361111
 30
0.0
 10
2.746799045138889
 20
-2.621839735243055
 30
0.0
 10
2.749050564236111
 20
-2.624260796440972
 30
0.0
 10
2.751810709635417
 20
-2.626186794704861
 30
0.0
 10
2.755093044704861
 20
-2.627597384982639
 30
0.0
 10
2.758368598090278
 20
-2.629001193576389
 30
0.0
 10
2.762037489149305
 20
-2.629713270399305
 30
0.0
 10
2.766092936197917
 20
-2.629713270399305
 30
0.0
 10
2.770161946614583
 20
-2.629713270399305
 30
0.0
 10
2.773830837673611
 20
-2.629001193576389
 30
0.0
 10
2.777106391059028
 20
-2.627597384982639
 30
0.0
 10
2.780368381076389
 20
-2.626186794704861
 30
0.0
 10
2.783148871527778
 20
-2.624260796440972
 30
0.0
 10
2.785407172309028
 20
-2.621839735243055
 30
0.0
 10
2.787665473090278
 20
-2.619411892361111
 30
0.0
 10
2.789401584201389
 20
-2.616475423177083
 30
0.0
 10
2.790656195746528
 20
-2.613030327690972
 30
0.0
 10
2.791890462239583
 20
-2.609592013888889
 30
0.0
 10
2.792507595486111
 20
-2.6058349609375
 30
0.0
 10
2.792507595486111
 20
-2.601765950520833
 30
0.0
 10
2.792507595486111
 20
-2.597710503472222
 30
0.0
 10
2.791890462239583
 20
-2.593953450520833
 30
0.0
 10
2.790656195746528
 20
-2.59051513671875
 30
0.0
 10
2.789401584201389
 20
-2.587070041232639
 30
0.0
 10
2.787665473090278
 20
-2.584133572048611
 30
0.0
 10
2.785407172309028
 20
-2.581705729166667
 30
0.0
 10
2.783148871527778
 20
-2.57928466796875
 30
0.0
 10
2.780368381076389
 20
-2.577358669704861
 30
0.0
 10
2.777106391059028
 20
-2.575948079427083
 30
0.0
 10
2.773830837673611
 20
-2.574537489149305
 30
0.0
 10
2.770161946614583
 20
-2.573832194010417
 30
0.0
 10
2.766092936197917
 20
-2.573832194010417
 30
0.0
  0
SPLINE
  5
CA
330
7B
100
AcDbEntity
  8
Layer 1
 62
     1
370
    18
100
AcDbSpline
210
0.0
220
0.0
230
1.0
 70
    11
 71
     3
 72
   104
 73
   100
 74
     0
 42
0.0000000001
 43
0.0000000001
 40
0.0
 40
0.0
 40
0.0
 40
0.0
 40
1.0
 40
1.0
 40
1.0
 40
2.0
 40
2.0
 40
2.0
 40
3.0
 40
3.0
 40
3.0
 40
4.0
 40
4.0
 40
4.0
 40
5.0
 40
5.0
 40
5.0
 40
6.0
 40
6.0
 40
6.0
 40
7.0
 40
7.0
 40
7.0
 40
8.0
 40
8.0
 40
8.0
 40
9.0
 40
9.0
 40
9.0
 40
10.0
 40
10.0
 40
10.0
 40
11.0
 40
11.0
 40
11.0
 40
12.0
 40
12.0
 40
12.0
 40
13.0
 40
13.0
 40
13.0
 40
14.0
 40
14.0
 40
14.0
 40
15.0
 40
15.0
 40
15.0
 40
16.0
 40
16.0
 40
16.0
 40
17.0
 40
17.0
 40
17.0
 40
18.0
 40
18.0
 40
18.0
 40
19.0
 40
19.0
 40
19.0
 40
20.0
 40
20.0
 40
20.0
 40
21.0
 40
21.0
 40
21.0
 40
22.0
 40
22.0
 40
22.0
 40
23.0
 40
23.0
 40
23.0
 40
24.0
 40
24.0
 40
24.0
 40
25.0
 40
25.0
 40
25.0
 40
26.0
 40
26.0
 40
26.0
 40
27.0
 40
27.0
 40
27.0
 40
28.0
 40
28.0
 40
28.0
 40
29.0
 40
29.0
 40
29.0
 40
30.0
 40
30.0
 40
30.0
 40
31.0
 40
31.0
 40
31.0
 40
32.0
 40
32.0
 40
32.0
 40
33.0
 40
33.0
 40
33.0
 40
33.0
 10
2.828240288628472
 20
-2.571458604600694
 30
0.0
 10
2.832526312934028
 20
-2.567511664496528
 30
0.0
 10
2.837497287326389
 20
-2.564548068576389
 30
0.0
 10
2.8431396484375
 20
-2.562567816840278
 30
0.0
 10
2.848788791232639
 20
-2.560594346788194
 30
0.0
 10
2.854424370659722
 20
-2.559611002604167
 30
0.0
 10
2.860073513454861
 20
-2.559611002604167
 30
0.0
 10
2.865946451822917
 20
-2.559611002604167
 30
0.0
 10
2.871005588107639
 20
-2.560343424479167
 30
0.0
 10
2.875230577256944
 20
-2.561808268229167
 30
0.0
 10
2.879462348090278
 20
-2.563273111979167
 30
0.0
 10
2.882941351996528
 20
-2.565253363715278
 30
0.0
 10
2.885647243923611
 20
-2.567728678385417
 30
0.0
 10
2.888359917534722
 20
-2.570217556423611
 30
0.0
 10
2.890360514322917
 20
-2.573065863715278
 30
0.0
 10
2.891655815972222
 20
-2.5762939453125
 30
0.0
 10
2.8929443359375
 20
-2.579501681857639
 30
0.0
 10
2.893608940972222
 20
-2.582865397135417
 30
0.0
 10
2.893608940972222
 20
-2.58636474609375
 30
0.0
 10
2.893608940972222
 20
-2.58636474609375
 30
0.0
 10
2.893608940972222
 20
-2.627339680989583
 30
0.0
 10
2.893608940972222
 20
-2.627339680989583
 30
0.0
 10
2.893608940972222
 20
-2.630160861545139
 30
0.0
 10
2.893656412760417
 20
-2.632758246527778
 30
0.0
 10
2.893764919704861
 20
-2.635125054253472
 30
0.0
 10
2.893880208333333
 20
-2.637505425347222
 30
0.0
 10
2.894056532118055
 20
-2.639763726128472
 30
0.0
 10
2.894287109375
 20
-2.641899956597222
 30
0.0
 10
2.894287109375
 20
-2.641899956597222
 30
0.0
 10
2.880744086371528
 20
-2.641899956597222
 30
0.0
 10
2.880744086371528
 20
-2.641899956597222
 30
0.0
 10
2.880398220486111
 20
-2.637837727864583
 30
0.0
 10
2.880221896701389
 20
-2.633782280815972
 30
0.0
 10
2.880221896701389
 20
-2.629713270399305
 30
0.0
 10
2.880221896701389
 20
-2.629713270399305
 30
0.0
 10
2.879889594184028
 20
-2.629713270399305
 30
0.0
 10
2.879889594184028
 20
-2.629713270399305
 30
0.0
 10
2.876498752170139
 20
-2.634908040364583
 30
0.0
 10
2.872483995225694
 20
-2.638570149739583
 30
0.0
 10
2.867872450086805
 20
-2.640719943576389
 30
0.0
 10
2.863240559895833
 20
-2.642856174045139
 30
0.0
 10
2.857876247829861
 20
-2.643934461805555
 30
0.0
 10
2.851779513888889
 20
-2.643934461805555
 30
0.0
 10
2.848056369357639
 20
-2.643934461805555
 30
0.0
 10
2.844502766927083
 20
-2.643425835503472
 30
0.0
 10
2.841111924913194
 20
-2.642408582899305
 30
0.0
 10
2.837734646267361
 20
-2.641391330295139
 30
0.0
 10
2.834750705295139
 20
-2.639865451388889
 30
0.0
 10
2.832221137152778
 20
-2.637837727864583
 30
0.0
 10
2.829678005642361
 20
-2.63580322265625
 30
0.0
 10
2.827684190538194
 20
-2.633293999565972
 30
0.0
 10
2.826212565104167
 20
-2.630303276909722
 30
0.0
 10
2.824747721354167
 20
-2.627312554253472
 30
0.0
 10
2.824015299479167
 20
-2.62384033203125
 30
0.0
 10
2.824015299479167
 20
-2.619886610243055
 30
0.0
 10
2.824015299479167
 20
-2.614698621961805
 30
0.0
 10
2.825168185763889
 20
-2.6103515625
 30
0.0
 10
2.827480740017361
 20
-2.606852213541667
 30
0.0
 10
2.829793294270833
 20
-2.603352864583333
 30
0.0
 10
2.832953559027778
 20
-2.600504557291667
 30
0.0
 10
2.836968315972222
 20
-2.598300509982639
 30
0.0
 10
2.840969509548611
 20
-2.596096462673611
 30
0.0
 10
2.845655653211805
 20
-2.594516330295139
 30
0.0
 10
2.851019965277778
 20
-2.593560112847222
 30
0.0
 10
2.85638427734375
 20
-2.592603895399305
 30
0.0
 10
2.862108018663194
 20
-2.592122395833333
 30
0.0
 10
2.868197970920139
 20
-2.592122395833333
 30
0.0
 10
2.868197970920139
 20
-2.592122395833333
 30
0.0
 10
2.879374186197917
 20
-2.592122395833333
 30
0.0
 10
2.879374186197917
 20
-2.592122395833333
 30
0.0
 10
2.879374186197917
 20
-2.592122395833333
 30
0.0
 10
2.879374186197917
 20
-2.588731553819444
 30
0.0
 10
2.879374186197917
 20
-2.588731553819444
 30
0.0
 10
2.879374186197917
 20
-2.586697048611111
 30
0.0
 10
2.878987630208333
 20
-2.584662543402778
 30
0.0
 10
2.878194173177083
 20
-2.5826416015625
 30
0.0
 10
2.877407497829861
 20
-2.580607096354167
 30
0.0
 10
2.876227484809028
 20
-2.578769259982639
 30
0.0
 10
2.874640570746528
 20
-2.577128092447917
 30
0.0
 10
2.873060438368055
 20
-2.57550048828125
 30
0.0
 10
2.871080186631944
 20
-2.574198404947917
 30
0.0
 10
2.868720160590278
 20
-2.5732421875
 30
0.0
 10
2.866346571180555
 20
-2.572279188368055
 30
0.0
 10
2.863511827256944
 20
-2.571797688802083
 30
0.0
 10
2.860249837239583
 20
-2.571797688802083
 30
0.0
 10
2.857306586371528
 20
-2.571797688802083
 30
0.0
 10
2.854743109809028
 20
-2.57208251953125
 30
0.0
 10
2.852545844184028
 20
-2.572645399305555
 30
0.0
 10
2.850341796875
 20
-2.573215060763889
 30
0.0
 10
2.84832763671875
 20
-2.57391357421875
 30
0.0
 10
2.846530490451389
 20
-2.57476806640625
 30
0.0
 10
2.844719780815972
 20
-2.575602213541667
 30
0.0
 10
2.84307861328125
 20
-2.57659912109375
 30
0.0
 10
2.84161376953125
 20
-2.577724880642361
 30
0.0
 10
2.84014892578125
 20
-2.578857421875
 30
0.0
 10
2.838738335503472
 20
-2.579928927951389
 30
0.0
 10
2.837388780381944
 20
-2.580939398871528
 30
0.0
 10
2.837388780381944
 20
-2.580939398871528
 30
0.0
 10
2.828240288628472
 20
-2.571458604600694
 30
0.0
 10
2.828240288628472
 20
-2.571458604600694
 30
0.0
  0
SPLINE
  5
CB
330
7B
100
AcDbEntity
  8
Layer 1
 62
     1
370
    18
100
AcDbSpline
210
0.0
220
0.0
230
1.0
 70
    11
 71
     3
 72
    41
 73
    37
 74
     0
 42
0.0000000001
 43
0.0000000001
 40
0.0
 40
0.0
 40
0.0
 40
0.0
 40
1.0
 40
1.0
 40
1.0
 40
2.0
 40
2.0
 40
2.0
 40
3.0
 40
3.0
 40
3.0
 40
4.0
 40
4.0
 40
4.0
 40
5.0
 40
5.0
 40
5.0
 40
6.0
 40
6.0
 40
6.0
 40
7.0
 40
7.0
 40
7.0
 40
8.0
 40
8.0
 40
8.0
 40
9.0
 40
9.0
 40
9.0
 40
10.0
 40
10.0
 40
10.0
 40
11.0
 40
11.0
 40
11.0
 40
12.0
 40
12.0
 40
12.0
 40
12.0
 10
2.871249728732639
 20
-2.603291829427083
 30
0.0
 10
2.867641872829861
 20
-2.603291829427083
 30
0.0
 10
2.863945855034722
 20
-2.603495279947917
 30
0.0
 10
2.860161675347222
 20
-2.603888617621528
 30
0.0
 10
2.85638427734375
 20
-2.604288736979167
 30
0.0
 10
2.852932400173611
 20
-2.605048285590278
 30
0.0
 10
2.849839952256944
 20
-2.606174045138889
 30
0.0
 10
2.846720377604167
 20
-2.607306586371528
 30
0.0
 10
2.844184027777778
 20
-2.608879937065972
 30
0.0
 10
2.842217339409722
 20
-2.610914442274305
 30
0.0
 10
2.840237087673611
 20
-2.612948947482639
 30
0.0
 10
2.839253743489583
 20
-2.615546332465278
 30
0.0
 10
2.839253743489583
 20
-2.618699815538194
 30
0.0
 10
2.839253743489583
 20
-2.623331705729167
 30
0.0
 10
2.840793185763889
 20
-2.626661512586805
 30
0.0
 10
2.843899197048611
 20
-2.628696017795139
 30
0.0
 10
2.847005208333333
 20
-2.630730523003472
 30
0.0
 10
2.851223415798611
 20
-2.631747775607639
 30
0.0
 10
2.856526692708333
 20
-2.631747775607639
 30
0.0
 10
2.860697428385417
 20
-2.631747775607639
 30
0.0
 10
2.864244249131944
 20
-2.631035698784722
 30
0.0
 10
2.867194281684028
 20
-2.629625108506944
 30
0.0
 10
2.870123969184028
 20
-2.628207736545139
 30
0.0
 10
2.872483995225694
 20
-2.626376681857639
 30
0.0
 10
2.874294704861111
 20
-2.624118381076389
 30
0.0
 10
2.876105414496528
 20
-2.621860080295139
 30
0.0
 10
2.877407497829861
 20
-2.619357638888889
 30
0.0
 10
2.878194173177083
 20
-2.616590711805555
 30
0.0
 10
2.878987630208333
 20
-2.613817003038194
 30
0.0
 10
2.879374186197917
 20
-2.611083984375
 30
0.0
 10
2.879374186197917
 20
-2.608371310763889
 30
0.0
 10
2.879374186197917
 20
-2.608371310763889
 30
0.0
 10
2.879374186197917
 20
-2.603291829427083
 30
0.0
 10
2.879374186197917
 20
-2.603291829427083
 30
0.0
 10
2.879374186197917
 20
-2.603291829427083
 30
0.0
 10
2.871249728732639
 20
-2.603291829427083
 30
0.0
 10
2.871249728732639
 20
-2.603291829427083
 30
0.0
  0
SPLINE
  5
CC
330
7B
100
AcDbEntity
  8
Layer 1
 62
     1
370
    18
100
AcDbSpline
210
0.0
220
0.0
230
1.0
 70
    11
 71
     3
 72
    83
 73
    79
 74
     0
 42
0.0000000001
 43
0.0000000001
 40
0.0
 40
0.0
 40
0.0
 40
0.0
 40
1.0
 40
1.0
 40
1.0
 40
2.0
 40
2.0
 40
2.0
 40
3.0
 40
3.0
 40
3.0
 40
4.0
 40
4.0
 40
4.0
 40
5.0
 40
5.0
 40
5.0
 40
6.0
 40
6.0
 40
6.0
 40
7.0
 40
7.0
 40
7.0
 40
8.0
 40
8.0
 40
8.0
 40
9.0
 40
9.0
 40
9.0
 40
10.0
 40
10.0
 40
10.0
 40
11.0
 40
11.0
 40
11.0
 40
12.0
 40
12.0
 40
12.0
 40
13.0
 40
13.0
 40
13.0
 40
14.0
 40
14.0
 40
14.0
 40
15.0
 40
15.0
 40
15.0
 40
16.0
 40
16.0
 40
16.0
 40
17.0
 40
17.0
 40
17.0
 40
18.0
 40
18.0
 40
18.0
 40
19.0
 40
19.0
 40
19.0
 40
20.0
 40
20.0
 40
20.0
 40
21.0
 40
21.0
 40
21.0
 40
22.0
 40
22.0
 40
22.0
 40
23.0
 40
23.0
 40
23.0
 40
24.0
 40
24.0
 40
24.0
 40
25.0
 40
25.0
 40
25.0
 40
26.0
 40
26.0
 40
26.0
 40
26.0
 10
2.973185221354167
 20
-2.582973904079861
 30
0.0
 10
2.970370822482639
 20
-2.580037434895833
 30
0.0
 10
2.9674072265625
 20
-2.577813042534722
 30
0.0
 10
2.964301215277778
 20
-2.5762939453125
 30
0.0
 10
2.961195203993055
 20
-2.57476806640625
 30
0.0
 10
2.957499186197917
 20
-2.574001736111111
 30
0.0
 10
2.953213161892361
 20
-2.574001736111111
 30
0.0
 10
2.949028862847222
 20
-2.574001736111111
 30
0.0
 10
2.945393880208333
 20
-2.57476806640625
 30
0.0
 10
2.942281087239583
 20
-2.5762939453125
 30
0.0
 10
2.939175075954861
 20
-2.577813042534722
 30
0.0
 10
2.936577690972222
 20
-2.57989501953125
 30
0.0
 10
2.934488932291667
 20
-2.582553439670139
 30
0.0
 10
2.932406955295139
 20
-2.585205078125
 30
0.0
 10
2.930826822916667
 20
-2.5882568359375
 30
0.0
 10
2.929762098524305
 20
-2.591695149739583
 30
0.0
 10
2.928683810763889
 20
-2.595140245225694
 30
0.0
 10
2.928148057725694
 20
-2.598720974392361
 30
0.0
 10
2.928148057725694
 20
-2.602444118923611
 30
0.0
 10
2.928148057725694
 20
-2.606174045138889
 30
0.0
 10
2.92877197265625
 20
-2.609700520833333
 30
0.0
 10
2.930006239149305
 20
-2.613030327690972
 30
0.0
 10
2.931240505642361
 20
-2.616366916232639
 30
0.0
 10
2.932996961805555
 20
-2.619269476996528
 30
0.0
 10
2.935255262586805
 20
-2.621751573350694
 30
0.0
 10
2.937513563368055
 20
-2.624240451388889
 30
0.0
 10
2.940226236979167
 20
-2.626186794704861
 30
0.0
 10
2.943393283420139
 20
-2.627597384982639
 30
0.0
 10
2.946539984809028
 20
-2.629001193576389
 30
0.0
 10
2.950093587239583
 20
-2.629713270399305
 30
0.0
 10
2.954047309027778
 20
-2.629713270399305
 30
0.0
 10
2.958346896701389
 20
-2.629713270399305
 30
0.0
 10
2.962015787760417
 20
-2.628946940104167
 30
0.0
 10
2.965060763888889
 20
-2.627421061197917
 30
0.0
 10
2.968112521701389
 20
-2.625895182291667
 30
0.0
 10
2.970926920572917
 20
-2.623670789930555
 30
0.0
 10
2.973531087239583
 20
-2.620734320746528
 30
0.0
 10
2.973531087239583
 20
-2.620734320746528
 30
0.0
 10
2.984354654947917
 20
-2.631571451822917
 30
0.0
 10
2.984354654947917
 20
-2.631571451822917
 30
0.0
 10
2.98040771484375
 20
-2.635979546440972
 30
0.0
 10
2.975816514756944
 20
-2.639133029513889
 30
0.0
 10
2.970567491319444
 20
-2.64105224609375
 30
0.0
 10
2.965304904513889
 20
-2.642978244357639
 30
0.0
 10
2.959757486979167
 20
-2.643934461805555
 30
0.0
 10
2.953891330295139
 20
-2.643934461805555
 30
0.0
 10
2.947672526041667
 20
-2.643934461805555
 30
0.0
 10
2.941996256510417
 20
-2.642917209201389
 30
0.0
 10
2.936862521701389
 20
-2.640889485677083
 30
0.0
 10
2.931728786892361
 20
-2.63885498046875
 30
0.0
 10
2.927300347222222
 20
-2.636006673177083
 30
0.0
 10
2.923577202690972
 20
-2.632331000434028
 30
0.0
 10
2.919854058159722
 20
-2.628668891059028
 30
0.0
 10
2.916958279079861
 20
-2.624260796440972
 30
0.0
 10
2.914937337239583
 20
-2.619127061631944
 30
0.0
 10
2.912909613715278
 20
-2.613986545138889
 30
0.0
 10
2.911892361111111
 20
-2.608317057291667
 30
0.0
 10
2.911892361111111
 20
-2.602105034722222
 30
0.0
 10
2.911892361111111
 20
-2.595906575520833
 30
0.0
 10
2.912909613715278
 20
-2.590203179253472
 30
0.0
 10
2.914937337239583
 20
-2.585008409288194
 30
0.0
 10
2.916958279079861
 20
-2.579820421006944
 30
0.0
 10
2.919820149739583
 20
-2.575358072916667
 30
0.0
 10
2.923489040798611
 20
-2.571634928385417
 30
0.0
 10
2.927157931857639
 20
-2.567905002170139
 30
0.0
 10
2.931559244791667
 20
-2.56500244140625
 30
0.0
 10
2.936686197916667
 20
-2.562906901041667
 30
0.0
 10
2.941826714409722
 20
-2.560824924045139
 30
0.0
 10
2.947564019097222
 20
-2.559773763020833
 30
0.0
 10
2.953891330295139
 20
-2.559773763020833
 30
0.0
 10
2.959757486979167
 20
-2.559773763020833
 30
0.0
 10
2.965365939670139
 20
-2.560824924045139
 30
0.0
 10
2.970723470052083
 20
-2.562906901041667
 30
0.0
 10
2.976094563802083
 20
-2.56500244140625
 30
0.0
 10
2.980753580729167
 20
-2.568183051215278
 30
0.0
 10
2.984700520833333
 20
-2.572475857204861
 30
0.0
 10
2.984700520833333
 20
-2.572475857204861
 30
0.0
 10
2.973185221354167
 20
-2.582973904079861
 30
0.0
 10
2.973185221354167
 20
-2.582973904079861
 30
0.0
  0
SPLINE
  5
CD
330
7B
100
AcDbEntity
  8
Layer 1
 62
     1
370
    18
100
AcDbSpline
210
0.0
220
0.0
230
1.0
 70
    11
 71
     3
 72
    71
 73
    67
 74
     0
 42
0.0000000001
 43
0.0000000001
 40
0.0
 40
0.0
 40
0.0
 40
0.0
 40
1.0
 40
1.0
 40
1.0
 40
2.0
 40
2.0
 40
2.0
 40
3.0
 40
3.0
 40
3.0
 40
4.0
 40
4.0
 40
4.0
 40
5.0
 40
5.0
 40
5.0
 40
6.0
 40
6.0
 40
6.0
 40
7.0
 40
7.0
 40
7.0
 40
8.0
 40
8.0
 40
8.0
 40
9.0
 40
9.0
 40
9.0
 40
10.0
 40
10.0
 40
10.0
 40
11.0
 40
11.0
 40
11.0
 40
12.0
 40
12.0
 40
12.0
 40
13.0
 40
13.0
 40
13.0
 40
14.0
 40
14.0
 40
14.0
 40
15.0
 40
15.0
 40
15.0
 40
16.0
 40
16.0
 40
16.0
 40
17.0
 40
17.0
 40
17.0
 40
18.0
 40
18.0
 40
18.0
 40
19.0
 40
19.0
 40
19.0
 40
20.0
 40
20.0
 40
20.0
 40
21.0
 40
21.0
 40
21.0
 40
22.0
 40
22.0
 40
22.0
 40
22.0
 10
3.008917914496528
 20
-2.607354058159722
 30
0.0
 10
3.008917914496528
 20
-2.610853407118055
 30
0.0
 10
3.009677463107639
 20
-2.614047580295139
 30
0.0
 10
3.011203342013889
 20
-2.616923014322917
 30
0.0
 10
3.012729220920139
 20
-2.619805230034722
 30
0.0
 10
3.014723036024305
 20
-2.622260199652778
 30
0.0
 10
3.017218695746528
 20
-2.624294704861111
 30
0.0
 10
3.019687228732639
 20
-2.626322428385417
 30
0.0
 10
3.022576226128472
 20
-2.627902560763889
 30
0.0
 10
3.025844997829861
 20
-2.629035101996528
 30
0.0
 10
3.029120551215278
 20
-2.630160861545139
 30
0.0
 10
3.032518174913194
 20
-2.630730523003472
 30
0.0
 10
3.0360107421875
 20
-2.630730523003472
 30
0.0
 10
3.040757921006944
 20
-2.630730523003472
 30
0.0
 10
3.044867621527778
 20
-2.629625108506944
 30
0.0
 10
3.048373752170139
 20
-2.627421061197917
 30
0.0
 10
3.051873101128472
 20
-2.625217013888889
 30
0.0
 10
3.055087619357639
 20
-2.622314453125
 30
0.0
 10
3.058024088541667
 20
-2.618699815538194
 30
0.0
 10
3.058024088541667
 20
-2.618699815538194
 30
0.0
 10
3.069546169704861
 20
-2.627509223090278
 30
0.0
 10
3.069546169704861
 20
-2.627509223090278
 30
0.0
 10
3.061069064670139
 20
-2.638461642795139
 30
0.0
 10
3.049207899305555
 20
-2.643934461805555
 30
0.0
 10
3.033983018663194
 20
-2.643934461805555
 30
0.0
 10
3.027655707465278
 20
-2.643934461805555
 30
0.0
 10
3.021931966145833
 20
-2.642856174045139
 30
0.0
 10
3.01678466796875
 20
-2.640719943576389
 30
0.0
 10
3.011650933159722
 20
-2.638570149739583
 30
0.0
 10
3.007310655381944
 20
-2.635613335503472
 30
0.0
 10
3.003757052951389
 20
-2.631829155815972
 30
0.0
 10
3.000189887152778
 20
-2.628044976128472
 30
0.0
 10
2.997456868489583
 20
-2.623589409722222
 30
0.0
 10
2.995530870225694
 20
-2.618448893229167
 30
0.0
 10
2.993618435329861
 20
-2.613315158420139
 30
0.0
 10
2.992655436197917
 20
-2.607760959201389
 30
0.0
 10
2.992655436197917
 20
-2.601765950520833
 30
0.0
 10
2.992655436197917
 20
-2.595784505208333
 30
0.0
 10
2.993706597222222
 20
-2.590230305989583
 30
0.0
 10
2.99578857421875
 20
-2.585089789496528
 30
0.0
 10
2.997877332899305
 20
-2.5799560546875
 30
0.0
 10
3.000766330295139
 20
-2.57550048828125
 30
0.0
 10
3.004428439670139
 20
-2.57171630859375
 30
0.0
 10
3.008097330729167
 20
-2.56793212890625
 30
0.0
 10
3.012471516927083
 20
-2.564975314670139
 30
0.0
 10
3.017550998263889
 20
-2.562825520833333
 30
0.0
 10
3.022637261284722
 20
-2.560682508680555
 30
0.0
 10
3.028157552083333
 20
-2.559611002604167
 30
0.0
 10
3.034138997395833
 20
-2.559611002604167
 30
0.0
 10
3.041259765625
 20
-2.559611002604167
 30
0.0
 10
3.047268337673611
 20
-2.56085205078125
 30
0.0
 10
3.05218505859375
 20
-2.563334147135417
 30
0.0
 10
3.057088216145833
 20
-2.565816243489583
 30
0.0
 10
3.061130099826389
 20
-2.569064670138889
 30
0.0
 10
3.064297146267361
 20
-2.573065863715278
 30
0.0
 10
3.06744384765625
 20
-2.577080620659722
 30
0.0
 10
3.069729275173611
 20
-2.581597222222222
 30
0.0
 10
3.071139865451389
 20
-2.58660888671875
 30
0.0
 10
3.072564019097222
 20
-2.591640896267361
 30
0.0
 10
3.073269314236111
 20
-2.596754286024305
 30
0.0
 10
3.073269314236111
 20
-2.601942274305555
 30
0.0
 10
3.073269314236111
 20
-2.601942274305555
 30
0.0
 10
3.073269314236111
 20
-2.607354058159722
 30
0.0
 10
3.073269314236111
 20
-2.607354058159722
 30
0.0
 10
3.073269314236111
 20
-2.607354058159722
 30
0.0
 10
3.008917914496528
 20
-2.607354058159722
 30
0.0
 10
3.008917914496528
 20
-2.607354058159722
 30
0.0
  0
SPLINE
  5
CE
330
7B
100
AcDbEntity
  8
Layer 1
 62
     1
370
    18
100
AcDbSpline
210
0.0
220
0.0
230
1.0
 70
    11
 71
     3
 72
    32
 73
    28
 74
     0
 42
0.0000000001
 43
0.0000000001
 40
0.0
 40
0.0
 40
0.0
 40
0.0
 40
1.0
 40
1.0
 40
1.0
 40
2.0
 40
2.0
 40
2.0
 40
3.0
 40
3.0
 40
3.0
 40
4.0
 40
4.0
 40
4.0
 40
5.0
 40
5.0
 40
5.0
 40
6.0
 40
6.0
 40
6.0
 40
7.0
 40
7.0
 40
7.0
 40
8.0
 40
8.0
 40
8.0
 40
9.0
 40
9.0
 40
9.0
 40
9.0
 10
3.057000054253472
 20
-2.595174153645833
 30
0.0
 10
3.056891547309028
 20
-2.591783311631944
 30
0.0
 10
3.056355794270833
 20
-2.588677300347222
 30
0.0
 10
3.055392795138889
 20
-2.585856119791667
 30
0.0
 10
3.054443359375
 20
-2.583028157552083
 30
0.0
 10
3.052992078993055
 20
-2.580573187934028
 30
0.0
 10
3.051079644097222
 20
-2.5784912109375
 30
0.0
 10
3.049153645833333
 20
-2.576395670572917
 30
0.0
 10
3.046766493055555
 20
-2.57476806640625
 30
0.0
 10
3.043891059027778
 20
-2.573581271701389
 30
0.0
 10
3.041002061631944
 20
-2.5723876953125
 30
0.0
 10
3.037651909722222
 20
-2.571797688802083
 30
0.0
 10
3.033806694878472
 20
-2.571797688802083
 30
0.0
 10
3.030083550347222
 20
-2.571797688802083
 30
0.0
 10
3.026665581597222
 20
-2.572509765625
 30
0.0
 10
3.023552788628472
 20
-2.57391357421875
 30
0.0
 10
3.020453559027778
 20
-2.575324164496528
 30
0.0
 10
3.017835828993055
 20
-2.577162000868055
 30
0.0
 10
3.015692816840278
 20
-2.579413519965278
 30
0.0
 10
3.0135498046875
 20
-2.581685384114583
 30
0.0
 10
3.011881510416667
 20
-2.584187825520833
 30
0.0
 10
3.010687934027778
 20
-2.586954752604167
 30
0.0
 10
3.009507921006944
 20
-2.5897216796875
 30
0.0
 10
3.008917914496528
 20
-2.592461480034722
 30
0.0
 10
3.008917914496528
 20
-2.595174153645833
 30
0.0
 10
3.008917914496528
 20
-2.595174153645833
 30
0.0
 10
3.057000054253472
 20
-2.595174153645833
 30
0.0
 10
3.057000054253472
 20
-2.595174153645833
 30
0.0
  0
ENDBLK
  5
7E
330
7B
100
AcDbEntity
  8
0
100
AcDbBlockEnd
  0
ENDSEC
  0
SECTION
  2
ENTITIES
  0
SPLINE
  5
3C
330
1F
100
AcDbEntity
  8
Layer 1
 62
   250
370
    18
100
AcDbSpline
210
0.0
220
0.0
230
1.0
 70
    11
 71
     3
 72
    29
 73
    25
 74
     0
 42
0.0000000001
 43
0.0000000001
 40
0.0
 40
0.0
 40
0.0
 40
0.0
 40
1.0
 40
1.0
 40
1.0
 40
2.0
 40
2.0
 40
2.0
 40
3.0
 40
3.0
 40
3.0
 40
4.0
 40
4.0
 40
4.0
 40
5.0
 40
5.0
 40
5.0
 40
6.0
 40
6.0
 40
6.0
 40
7.0
 40
7.0
 40
7.0
 40
8.0
 40
8.0
 40
8.0
 40
8.0
 10
3.843410915798611
 20
-2.588758680555555
 30
0.0
 10
3.843410915798611
 20
-2.657796223958333
 30
0.0
 10
3.787448459201389
 20
-2.713758680555555
 30
0.0
 10
3.718410915798611
 20
-2.713758680555555
 30
0.0
 10
3.718410915798611
 20
-2.713758680555555
 30
0.0
 10
0.5934176974826388
 20
-2.713758680555555
 30
0.0
 10
0.5934176974826388
 20
-2.713758680555555
 30
0.0
 10
0.524380154079861
 20
-2.713758680555555
 30
0.0
 10
0.4684176974826388
 20
-2.657796223958333
 30
0.0
 10
0.4684176974826388
 20
-2.588758680555555
 30
0.0
 10
0.4684176974826388
 20
-2.588758680555555
 30
0.0
 10
0.4684176974826388
 20
-0.5262586805555556
 30
0.0
 10
0.4684176974826388
 20
-0.5262586805555556
 30
0.0
 10
0.4684176974826388
 20
-0.4572211371527777
 30
0.0
 10
0.524380154079861
 20
-0.4012586805555555
 30
0.0
 10
0.5934176974826388
 20
-0.4012586805555555
 30
0.0
 10
0.5934176974826388
 20
-0.4012586805555555
 30
0.0
 10
3.718410915798611
 20
-0.4012586805555555
 30
0.0
 10
3.718410915798611
 20
-0.4012586805555555
 30
0.0
 10
3.787448459201389
 20
-0.4012586805555555
 30
0.0
 10
3.843410915798611
 20
-0.4572211371527777
 30
0.0
 10
3.843410915798611
 20
-0.5262586805555556
 30
0.0
 10
3.843410915798611
 20
-0.5262586805555556
 30
0.0
 10
3.843410915798611
 20
-2.588758680555555
 30
0.0
 10
3.843410915798611
 20
-2.588758680555555
 30
0.0
  0
POLYLINE
  5
3D
330
1F
100
AcDbEntity
  8
Layer 1
 62
     1
370
    18
100
AcDb2dPolyline
 66
     1
 10
0.0
 20
0.0
 30
0.0
  0
VERTEX
  5
3E
330
3D
100
AcDbEntity
  8
Layer 1
 62
     1
370
    18
100
AcDbVertex
100
AcDb2dVertex
 10
0.4684176974826388
 20
-1.026258680555556
 30
0.0
  0
VERTEX
  5
3F
330
3D
100
AcDbEntity
  8
Layer 1
 62
     1
370
    18
100
AcDbVertex
100
AcDb2dVertex
 10
3.843410915798611
 20
-1.026258680555556
 30
0.0
  0
SEQEND
  5
40
330
3D
100
AcDbEntity
  8
Layer 1
370
    18
  0
POLYLINE
  5
41
330
1F
100
AcDbEntity
  8
Layer 1
 62
     1
370
    18
100
AcDb2dPolyline
 66
     1
 10
0.0
 20
0.0
 30
0.0
  0
VERTEX
  5
42
330
41
100
AcDbEntity
  8
Layer 1
 62
     1
370
    18
100
AcDbVertex
100
AcDb2dVertex
 10
0.4684176974826388
 20
-2.463758680555555
 30
0.0
  0
VERTEX
  5
43
330
41
100
AcDbEntity
  8
Layer 1
 62
     1
370
    18
100
AcDbVertex
100
AcDb2dVertex
 10
3.843410915798611
 20
-2.463758680555555
 30
0.0
  0
SEQEND
  5
44
330
41
100
AcDbEntity
  8
Layer 1
370
    18
  0
INSERT
  5
46
330
1F
100
AcDbEntity
  8
Layer 1
100
AcDbBlockReference
  2
block 2
 10
0.0
 20
0.0
 30
0.0
  0
INSERT
  5
7C
330
1F
100
AcDbEntity
  8
Layer 1
100
AcDbBlockReference
  2
block 3
 10
0.0
 20
0.0
 30
0.0
  0
ENDSEC
  0
SECTION
  2
OBJECTS
  0
DICTIONARY
  5
C
330
0
100
AcDbDictionary
281
     1
  3
ACAD_GROUP
350
D
  3
ACAD_LAYOUT
350
1A
  3
ACAD_MLINESTYLE
350
17
  3
ACAD_PLOTSETTINGS
350
19
  3
ACAD_PLOTSTYLENAME
350
E
  3
ACAD_TABLESTYLE
350
CF
  3
ACAD_VISUALSTYLE
350
2A
  0
DICTIONARY
  5
D
102
{ACAD_REACTORS
330
C
102
}
330
C
100
AcDbDictionary
281
     1
  0
DICTIONARY
  5
1A
102
{ACAD_REACTORS
330
C
102
}
330
C
100
AcDbDictionary
281
     1
  3
Layout1
350
1E
  3
Layout2
350
26
  3
Model
350
22
  0
DICTIONARY
  5
17
102
{ACAD_REACTORS
330
C
102
}
330
C
100
AcDbDictionary
281
     1
  3
Standard
350
18
  0
DICTIONARY
  5
19
102
{ACAD_REACTORS
330
C
102
}
330
C
100
AcDbDictionary
281
     1
  0
ACDBDICTIONARYWDFLT
  5
E
102
{ACAD_REACTORS
330
C
102
}
330
C
100
AcDbDictionary
281
     1
  3
Normal
350
F
100
AcDbDictionaryWithDefault
340
F
  0
DICTIONARY
  5
CF
102
{ACAD_REACTORS
330
C
102
}
330
C
100
AcDbDictionary
281
     1
  0
DICTIONARY
  5
2A
102
{ACAD_REACTORS
330
C
102
}
330
C
100
AcDbDictionary
281
     1
  3
2dWireframe
350
2F
  3
3D Hidden
350
31
  3
3dWireframe
350
30
  3
Basic
350
32
  3
Brighten
350
36
  3
ColorChange
350
3A
  3
Conceptual
350
34
  3
Dim
350
35
  3
Facepattern
350
39
  3
Flat
350
2B
  3
FlatWithEdges
350
2C
  3
Gouraud
350
2D
  3
GouraudWithEdges
350
2E
  3
Linepattern
350
38
  3
Realistic
350
33
  3
Thicken
350
37
  0
LAYOUT
  5
1E
102
{ACAD_REACTORS
330
1A
102
}
330
1A
100
AcDbPlotSettings
  1

  2
none_device
  4

  6

 40
0.0
 41
0.0
 42
0.0
 43
0.0
 44
0.0
 45
0.0
 46
0.0
 47
0.0
 48
0.0
 49
0.0
140
0.0
141
0.0
142
1.0
143
1.0
 70
   688
 72
     0
 73
     0
 74
     5
  7

 75
    16
147
1.0
148
0.0
149
0.0
100
AcDbLayout
  1
Layout1
 70
     1
 71
     1
 10
0.0
 20
0.0
 11
12.0
 21
9.0
 12
0.0
 22
0.0
 32
0.0
 14
1.000000000000000E+20
 24
1.000000000000000E+20
 34
1.000000000000000E+20
 15
-1.000000000000000E+20
 25
-1.000000000000000E+20
 35
-1.000000000000000E+20
146
0.0
 13
0.0
 23
0.0
 33
0.0
 16
1.0
 26
0.0
 36
0.0
 17
0.0
 27
1.0
 37
0.0
 76
     0
330
1B
  0
LAYOUT
  5
26
102
{ACAD_REACTORS
330
1A
102
}
330
1A
100
AcDbPlotSettings
  1

  2
none_device
  4

  6

 40
0.0
 41
0.0
 42
0.0
 43
0.0
 44
0.0
 45
0.0
 46
0.0
 47
0.0
 48
0.0
 49
0.0
140
0.0
141
0.0
142
1.0
143
1.0
 70
   688
 72
     0
 73
     0
 74
     5
  7

 75
    16
147
1.0
148
0.0
149
0.0
100
AcDbLayout
  1
Layout2
 70
     1
 71
     2
 10
0.0
 20
0.0
 11
0.0
 21
0.0
 12
0.0
 22
0.0
 32
0.0
 14
0.0
 24
0.0
 34
0.0
 15
0.0
 25
0.0
 35
0.0
146
0.0
 13
0.0
 23
0.0
 33
0.0
 16
1.0
 26
0.0
 36
0.0
 17
0.0
 27
1.0
 37
0.0
 76
     0
330
23
  0
LAYOUT
  5
22
102
{ACAD_REACTORS
330
1A
102
}
330
1A
100
AcDbPlotSettings
  1

  2
none_device
  4

  6

 40
0.0
 41
0.0
 42
0.0
 43
0.0
 44
0.0
 45
0.0
 46
0.0
 47
0.0
 48
0.0
 49
0.0
140
0.0
141
0.0
142
1.0
143
1.0
 70
  1712
 72
     0
 73
     0
 74
     0
  7

 75
     0
147
1.0
148
0.0
149
0.0
100
AcDbLayout
  1
Model
 70
     1
 71
     0
 10
0.0
 20
0.0
 11
12.0
 21
9.0
 12
0.0
 22
0.0
 32
0.0
 14
1.000000000000000E+20
 24
1.000000000000000E+20
 34
1.000000000000000E+20
 15
-1.000000000000000E+20
 25
-1.000000000000000E+20
 35
-1.000000000000000E+20
146
0.0
 13
0.0
 23
0.0
 33
0.0
 16
1.0
 26
0.0
 36
0.0
 17
0.0
 27
1.0
 37
0.0
 76
     0
330
1F
331
29
  0
MLINESTYLE
  5
18
102
{ACAD_REACTORS
330
17
102
}
330
17
100
AcDbMlineStyle
  2
Standard
 70
     0
  3

 62
   256
 51
90.0
 52
90.0
 71
     2
 49
0.5
 62
   256
  6
BYLAYER
 49
-0.5
 62
   256
  6
BYLAYER
  0
ACDBPLACEHOLDER
  5
F
102
{ACAD_REACTORS
330
E
102
}
330
E
  0
VISUALSTYLE
  5
2F
102
{ACAD_REACTORS
330
2A
102
}
330
2A
100
AcDbVisualStyle
  2
2dWireframe
 70
     4
 71
     0
 72
     2
 73
     0
 90
        0
 40
-0.6
 41
-30.0
 62
     5
 63
     7
 74
     1
 91
        4
 64
     7
 65
   257
 75
     1
175
     1
 42
1.0
 92
        0
 66
   257
 43
1.0
 76
     1
 77
     6
 78
     2
 67
     7
 79
     5
170
     0
171
     0
290
     0
174
     0
 93
        1
 44
0.0
173
     0
291
     0
 45
0.0
1001
ACAD
1000
AcDbSavedByObjectVersion
1070
     0
  0
VISUALSTYLE
  5
31
102
{ACAD_REACTORS
330
2A
102
}
330
2A
100
AcDbVisualStyle
  2
3D Hidden
 70
     6
 71
     1
 72
     2
 73
     2
 90
        0
 40
-0.6
 41
-30.0
 62
     5
 63
     7
 74
     2
 91
        2
 64
     7
 65
   257
 75
     2
175
     1
 42
40.0
 92
        0
 66
   257
 43
1.0
 76
     1
 77
     6
 78
     2
 67
     7
 79
     3
170
     0
171
     0
290
     0
174
     0
 93
        1
 44
0.0
173
     0
291
     0
 45
0.0
1001
ACAD
1000
AcDbSavedByObjectVersion
1070
     0
  0
VISUALSTYLE
  5
30
102
{ACAD_REACTORS
330
2A
102
}
330
2A
100
AcDbVisualStyle
  2
3dWireframe
 70
     5
 71
     0
 72
     2
 73
     0
 90
        0
 40
-0.6
 41
-30.0
 62
     5
 63
     7
 74
     1
 91
        4
 64
     7
 65
   257
 75
     1
175
     1
 42
1.0
 92
        0
 66
   257
 43
1.0
 76
     1
 77
     6
 78
     2
 67
     7
 79
     5
170
     0
171
     0
290
     0
174
     0
 93
        1
 44
0.0
173
     0
291
     0
 45
0.0
1001
ACAD
1000
AcDbSavedByObjectVersion
1070
     0
  0
VISUALSTYLE
  5
32
102
{ACAD_REACTORS
330
2A
102
}
330
2A
100
AcDbVisualStyle
  2
Basic
 70
     7
 71
     1
 72
     0
 73
     1
 90
        0
 40
-0.6
 41
-30.0
 62
     5
 63
     7
 74
     0
 91
        4
 64
     7
 65
   257
 75
     1
175
     1
 42
1.0
 92
        8
 66
     7
 43
1.0
 76
     1
 77
     6
 78
     2
 67
     7
 79
     5
170
     0
171
     0
290
     0
174
     0
 93
        1
 44
0.0
173
     0
291
     1
 45
0.0
1001
ACAD
1000
AcDbSavedByObjectVersion
1070
     0
  0
VISUALSTYLE
  5
36
102
{ACAD_REACTORS
330
2A
102
}
330
2A
100
AcDbVisualStyle
  2
Brighten
 70
    12
 71
     2
 72
     2
 73
     0
 90
        0
 40
-0.6
 41
-30.0
 62
     5
 63
     7
 74
     1
 91
        4
 64
     7
 65
   257
 75
     1
175
     1
 42
1.0
 92
        8
 66
     7
 43
1.0
 76
     1
 77
     6
 78
     2
 67
     7
 79
     5
170
     0
171
     0
290
     0
174
     0
 93
        1
 44
50.0
173
     0
291
     1
 45
0.0
1001
ACAD
1000
AcDbSavedByObjectVersion
1070
     0
  0
VISUALSTYLE
  5
3A
102
{ACAD_REACTORS
330
2A
102
}
330
2A
100
AcDbVisualStyle
  2
ColorChange
 70
    16
 71
     2
 72
     2
 73
     3
 90
        0
 40
-0.6
 41
-30.0
 62
     5
 63
     8
 74
     1
 91
        4
 64
     7
 65
   257
 75
     1
175
     1
 42
1.0
 92
        8
 66
     8
 43
1.0
 76
     1
 77
     6
 78
     2
 67
     7
 79
     5
170
     0
171
     0
290
     0
174
     0
 93
        1
 44
0.0
173
     0
291
     1
 45
0.0
1001
ACAD
1000
AcDbSavedByObjectVersion
1070
     0
  0
VISUALSTYLE
  5
34
102
{ACAD_REACTORS
330
2A
102
}
330
2A
100
AcDbVisualStyle
  2
Conceptual
 70
     9
 71
     3
 72
     2
 73
     0
 90
        0
 40
-0.6
 41
-30.0
 62
     5
 63
     7
 74
     2
 91
        2
 64
     7
 65
   257
 75
     1
175
     1
 42
40.0
 92
        8
 66
     7
 43
1.0
 76
     1
 77
     6
 78
     2
 67
     7
 79
     3
170
     0
171
     0
290
     0
174
     0
 93
        1
 44
0.0
173
     0
291
     0
 45
0.0
1001
ACAD
1000
AcDbSavedByObjectVersion
1070
     0
  0
VISUALSTYLE
  5
35
102
{ACAD_REACTORS
330
2A
102
}
330
2A
100
AcDbVisualStyle
  2
Dim
 70
    11
 71
     2
 72
     2
 73
     0
 90
        0
 40
-0.6
 41
-30.0
 62
     5
 63
     7
 74
     1
 91
        4
 64
     7
 65
   257
 75
     1
175
     1
 42
1.0
 92
        8
 66
     7
 43
1.0
 76
     1
 77
     6
 78
     2
 67
     7
 79
     5
170
     0
171
     0
290
     0
174
     0
 93
        1
 44
-50.0
173
     0
291
     1
 45
0.0
1001
ACAD
1000
AcDbSavedByObjectVersion
1070
     0
  0
VISUALSTYLE
  5
39
102
{ACAD_REACTORS
330
2A
102
}
330
2A
100
AcDbVisualStyle
  2
Facepattern
 70
    15
 71
     2
 72
     2
 73
     0
 90
        0
 40
-0.6
 41
-30.0
 62
     5
 63
     7
 74
     1
 91
        4
 64
     7
 65
   257
 75
     1
175
     1
 42
1.0
 92
        8
 66
     7
 43
1.0
 76
     1
 77
     6
 78
     2
 67
     7
 79
     5
170
     0
171
     0
290
     0
174
     0
 93
        1
 44
0.0
173
     0
291
     1
 45
0.0
1001
ACAD
1000
AcDbSavedByObjectVersion
1070
     0
  0
VISUALSTYLE
  5
2B
102
{ACAD_REACTORS
330
2A
102
}
330
2A
100
AcDbVisualStyle
  2
Flat
 70
     0
 71
     2
 72
     1
 73
     1
 90
        2
 40
-0.6
 41
30.0
 62
     5
 63
     7
 74
     0
 91
        4
 64
     7
 65
   257
 75
     1
175
     1
 42
1.0
 92
        8
 66
     7
 43
1.0
 76
     1
 77
     6
 78
     2
 67
     7
 79
     5
170
     0
171
     0
290
     0
174
     0
 93
       13
 44
0.0
173
     0
291
     1
 45
0.0
1001
ACAD
1000
AcDbSavedByObjectVersion
1070
     0
  0
VISUALSTYLE
  5
2C
102
{ACAD_REACTORS
330
2A
102
}
330
2A
100
AcDbVisualStyle
  2
FlatWithEdges
 70
     1
 71
     2
 72
     1
 73
     1
 90
        2
 40
-0.6
 41
30.0
 62
     5
 63
     7
 74
     1
 91
        4
 64
     7
 65
   257
 75
     1
175
     1
 42
1.0
 92
        0
 66
   257
 43
1.0
 76
     1
 77
     6
 78
     2
 67
     7
 79
     5
170
     0
171
     0
290
     0
174
     0
 93
       13
 44
0.0
173
     0
291
     1
 45
0.0
1001
ACAD
1000
AcDbSavedByObjectVersion
1070
     0
  0
VISUALSTYLE
  5
2D
102
{ACAD_REACTORS
330
2A
102
}
330
2A
100
AcDbVisualStyle
  2
Gouraud
 70
     2
 71
     2
 72
     2
 73
     1
 90
        2
 40
-0.6
 41
30.0
 62
     5
 63
     7
 74
     0
 91
        4
 64
     7
 65
   257
 75
     1
175
     1
 42
1.0
 92
        0
 66
     7
 43
1.0
 76
     1
 77
     6
 78
     2
 67
     7
 79
     5
170
     0
171
     0
290
     0
174
     0
 93
       13
 44
0.0
173
     0
291
     1
 45
0.0
1001
ACAD
1000
AcDbSavedByObjectVersion
1070
     0
  0
VISUALSTYLE
  5
2E
102
{ACAD_REACTORS
330
2A
102
}
330
2A
100
AcDbVisualStyle
  2
GouraudWithEdges
 70
     3
 71
     2
 72
     2
 73
     1
 90
        2
 40
-0.6
 41
30.0
 62
     5
 63
     7
 74
     1
 91
        4
 64
     7
 65
   257
 75
     1
175
     1
 42
1.0
 92
        0
 66
   257
 43
1.0
 76
     1
 77
     6
 78
     2
 67
     7
 79
     5
170
     0
171
     0
290
     0
174
     0
 93
       13
 44
0.0
173
     0
291
     1
 45
0.0
1001
ACAD
1000
AcDbSavedByObjectVersion
1070
     0
  0
VISUALSTYLE
  5
38
102
{ACAD_REACTORS
330
2A
102
}
330
2A
100
AcDbVisualStyle
  2
Linepattern
 70
    14
 71
     2
 72
     2
 73
     0
 90
        0
 40
-0.6
 41
-30.0
 62
     5
 63
     7
 74
     1
 91
        4
 64
     7
 65
   257
 75
     7
175
     7
 42
1.0
 92
        8
 66
     7
 43
1.0
 76
     1
 77
     6
 78
     2
 67
     7
 79
     5
170
     0
171
     0
290
     0
174
     0
 93
        1
 44
0.0
173
     0
291
     1
 45
0.0
1001
ACAD
1000
AcDbSavedByObjectVersion
1070
     0
  0
VISUALSTYLE
  5
33
102
{ACAD_REACTORS
330
2A
102
}
330
2A
100
AcDbVisualStyle
  2
Realistic
 70
     8
 71
     2
 72
     2
 73
     0
 90
        0
 40
-0.6
 41
-30.0
 62
     5
 63
     7
 74
     1
 91
        0
 64
     7
 65
   257
 75
     1
175
     1
 42
1.0
 92
        8
 66
     8
 43
1.0
 76
     1
 77
     6
 78
     2
 67
     7
 79
     5
170
     0
171
     0
290
     0
174
     0
 93
       13
 44
0.0
173
     0
291
     0
 45
0.0
1001
ACAD
1000
AcDbSavedByObjectVersion
1070
     0
  0
VISUALSTYLE
  5
37
102
{ACAD_REACTORS
330
2A
102
}
330
2A
100
AcDbVisualStyle
  2
Thicken
 70
    13
 71
     2
 72
     2
 73
     0
 90
        0
 40
-0.6
 41
-30.0
 62
     5
 63
     7
 74
     1
 91
        4
 64
     7
 65
   257
 75
     1
175
     1
 42
1.0
 92
       12
 66
     7
 43
1.0
 76
     1
 77
     6
 78
     2
 67
     7
 79
     5
170
     0
171
     0
290
     0
174
     0
 93
        1
 44
0.0
173
     0
291
     1
 45
0.0
1001
ACAD
1000
AcDbSavedByObjectVersion
1070
     0
  0
ENDSEC
  0
EOF
